• Song:

    Emmanuel Espino - The Song From My Dream

  • Artist:

    Misc Unsigned Bands

the song from my dream - emmanuel espino
capo 6, standard tuning


E|-----------------------------------0--------------------------------------------------|
B|--1-----------1--------3--------------------3-----------3--------1-----------0--------|
G|--------0--------0-----------0--------0-----------0--------0-----------0--------0-----|
D|-----2--------------2-----2--------------2-----0--------------0-----0--------------0--|
A|--3--------3-----------3--------3-----------2--------2-----------2--------2-----------|
E|--------------------------------------------------------------------------------------|



E|---------------------------------------------------------------------------------------|
B|--0h1-----------1--------1-------------------------------1--------1-----------0--------|
G|----------0--------0-----------0--------0--0h2-----2--------2-----------2--------2-----|
D|-------2--------------2-----2--------2----------3--------------3-----3--------------3--|
A|--0----------0-----------0--------0----------------------------------------------------|
E|-------------------------------------------1----------1-----------3--------3-----------|
Show more