• Song:

    Fml - September Leaves

  • Artist:

    Misc Unsigned Bands

SEPTEMBER LEAVES Intro

by: F.M.L.   

                                        
e------2--------2--------3--------3-----o
B----3---3----3---3----3---3----3---3---o   x3
G--2--------2--------2--------2---------o
D---------------------------------------o
A---------------------------------------o
E---------------------------------------o


e--3--3--2--2--2-2-2-2-xx--3--3--3-3-3-3-xx---o
B--3--3--3--3--3-3-3-3-xx--3--3--3-3-3-3-xx---o   x4
G--2--2--2--2--2-2-2-2-xx--2--2--2-2-2-2-xx---o
D---------------------------------------------o
A---------------------------------------------o
E---------------------------------------------o
Show more