• Song:

    Followed By 37 Seconds Of Happiness - The Linedancer

  • Artist:

    Misc Unsigned Bands

Title: The Linedancer
Artist: Followed By 37 Seconds Of Happiness


Intro:

Drums

Guitar 1:

E|--------------------------------------------------------------------------------|
B|--------------------------------------------------------------------------------|
G|--11-11-11-11-11-11--14-14-14--13-13-13--16-16-16-16-16-16--13-13-13--16-16-16--|
D|--12-12-12-12-12-12--12-12-12--12-12-12--12-12-12-12-12-12--12-12-12--13-13-13--|
A|--------------------------------------------------------------------------------|
E|--------------------------------------------------------------------------------|

Verse:

Guitar 1:
E|--------------------------------------------------------------------------------|
B|--------------------------------------------------------------------------------|
G|--11-11-11-11-11-11--14-14-14--13-13-13--16-16-16-16-16-16--13-13-13--16-16-16--|
D|--12-12-12-12-12-12--12-12-12--12-12-12--12-12-12-12-12-12--12-12-12--13-13-13--|
A|--------------------------------------------------------------------------------|
E|--------------------------------------------------------------------------------|



Main Riff:



Guitar 1 (Distortion)
E|-----------------------------------------------------------------------------------|
B|-----------------------------------------------------------------------------------|
G|-----------------------------------------------------------------------------------|
D|--12-12-12-12-12-12-12--11-11-11-11-11-11-11-11--9-9-9-9-9-9-9-9--7-7-7-7-7-7-7-7--|
A|--12-12-12-12-12-12-12--11-11-11-11-11-11-11-11--9-9-9-9-9-9-9-9--7-7-7-7-7-7-7-7--|
E|--10-10-10-10-10-10-10--9--9--9--9--9--9--9--9---7-7-7-7-7-7-7-7--5-5-5-5-5-5-5-5--|


Guitar 2 (Clean)

E|-----------------------------------------------------------------|
B|-----------------------------------------------------------------|
G|----11----11----11---14----14---12-----12--12----11--------------|
D|--12---12----12---------12----------12---------12----------------|
A|-----------------------------------------------------------------|
E|-----------------------------------------------------------------|

|--------------------------------------------|
|--------------------------------------------|
|------9------9-----9--12----12--11---11-----|
|--11-----11-----11-------11--------11-------|
|--------------------------------------------|
|--------------------------------------------|

|--------------------------------|
|--------------------------------|
|-----7---7---7--11---11--9---9--|
|--9----9---9-------9-------9----|
|--------------------------------|
|--------------------------------|

|-------------------------------|
|-------------------------------|
|----7---6---7--6---7--6----7---|
|--7---7---7------7-------7-----|
|-------------------------------|
|-------------------------------|


There, hope that wasn't to much off the real song. :)
Show more