• Song:

    Folque - Reinlender

  • Artist:

    Misc Unsigned Bands

This is a real band, released 10 records in the 70s, 80s and 90s.
They don't have their web page, but here's some links:
http://66.102.9.104/search?q=cache:SccWPIsKT3kJ:www.norskfolkemuseum.no/prosjekt/mogb/fq/
flx.htm+Folque&hl=no
&ct=clnk&cd=12&gl=no&client=firefox-a
http://no.wikipedia.org/wiki/Folque
http://www.mic.no/nmi.nsf/doc/art2006050509272065525749
www.last.fm/music/Folque

Folque - Reinlender
Standard tuning
Listen to song for the timing. It's very simple.


Rest

0:19
G--------------------|
D------2-------------|
A----3---5-----------|     x2
E--5-------5-3~5-3-5-|


G-------------------------|
D-7-7-7-------------------|
A----7--7-7-7-5-5-5-7-7-7-|
E----------7-----5-----7--|


G-------------------------|
D-7-7-7-------------------|
A----7--7-7-7-5-5-5-5-7---|
E----------7-----5------5-|

G--------------------|
D------2-------------|
A----3---5-----------|     x2
E--5-------5-3~5-3-5-|

G-------------------------|
D-7-7-7-------------------|
A----7--7-7-7-5-5-5-7-7-7-|
E----------7-----5-----7--|


G--------------------------|
D-7-7-7--------------------|
A----7--7-7-7-5-5-5-5-7----|
E----------7-----5------5~-|

Rest

1:02
G------------------------------|
D------2-2-4-42----------------|
A---235-----5--3-3-32523-32----|   (fast)
E--5--------------------5--535-|

__________________________
G-------------------------|
D-7-7-7-------------------|
A----7--7-7-7-5-5-5-7-7-7-|
E----------7-----5-----7--|

G---------------------------|
D-7-7-7---------------------|
A----7--7-7-7-5-5-5-5-7-----|   x3 (everything inside ¯_, some variations
E----------7-----5------5~--|                  on the second time, though)
¯¯¯¯¯¯¯¯¯¯¯¯¯¯¯¯¯¯¯¯¯¯¯¯¯¯

G--------------------|
D------2-------------|
A----3---5-----------|     x2
E--5-------5-3~5-3-5-|

G-------------------------|
D-7-7-7-------------------|
A----7--7-7-7-5-5-5-7-7-7-|
E----------7-----5-----7--|


G--------------------------|
D-7-7-7--------------------|
A----7--7-7-7-5-5-5-5-7----|
E----------7-----5------5~-|
Show more