• Song:

    Forcefed Anthrax - War

  • Artist:

    Misc Unsigned Bands

At the start, Aidan picks very quickly, bear this in mind.
Verse.
e|---------------------------------------------------------------------------|
B|---------------------------------------------------------------------------|
G|---------------------------------------------------------------------------|
D|---------------------------------------------------------------------------|
A|00000000-7-5-3-1-0000000000-7-5-3-1-000000000------------------------------|
E|---------------------------------------------000000000-7-5-3-1-00000000----|

Choruse

e|---------------------------------------------------------------------------|
B|---------------------------------------------------------------------------|
G|---------------------------------------------------------------------------|
D|---------------------------------------------------------------------------|
A|9-9-9-7-7-7-5-5-5-9-9-9-7-7-7-5-5-5-9-9-9-7-7-7-5-5-5----------------------|
E|7-7-7-5-5-5-3-3-3-7-7-7-5-5-5-3-3-3-7-7-7-5-5-5-3-3-3----------------------|

That's as much as i can be bothered to do; however it is pretty accurate.
Show more