• Song:

    Forgive Durden - I Am A Heart Watson The Rest Of Me Is Mere Appendix

  • Artist:

    Misc Unsigned Bands

----------------------------------------------------------------------------          
I Am A Heart, Watson. The Rest Of Me Is Mere Appendix.
                                 by
                           Forgive Durden
----------------------------------------------------------------------------
                     http://www.forgivedurden.com/

Tabbed by: Matddors
Email: matddors@comcast.net

Tuning: standard

Intro 

e|-------------------------------------------------------------------------|
B|-------------------------------------------------------------------------|
G|--12-12-12--10-10-10--8-8-8--13-13-13--12-12-12--10-10-10----------------|
D|--X--X--X---X--X--X---X-X-X--X--X--X---X--X--X---X--X--X-----------------|
A|--10-10-10--8--8--8---6-6-6--11-11-11--10-10-10--8--8--8-----------------|
E|-------------------------------------------------------------------------|

e|-------------------------------------------------------------------------|
B|-------------------------------------------------------------------------|
G|--12-12-12--15-15-15--8-8-8--13-13-13--12-12-12--10-10-10----------------|
D|--X--X--X---X--X--X---X-X-X--X--X--X---X--X--X---X--X--X-----------------|
A|--10-10-10--13-13-13--6-6-6--11-11-11--10-10-10--8--8--8-----------------|
E|-------------------------------------------------------------------------|

Chorus

Guitar 1
e|-------------------------------------------------------------------------|
B|--4-4--- x16 --4 (let ring)----------------------------------------------|
G|---3---------------------------------------------------------------------|
D|-------------------------------------------------------------------------|
A|-------------------------------------------------------------------------|
E|-------------------------------------------------------------------------|

Guitar 2 x2
e|-------------------------------------------------------------------------|
B|-------------------------------------------------------------------------|
G|--8--------5-5-5----------------3-3-3------------------------------------|
D|--X- x12 --X-X-X--6-6-6--5-5-5--X-X-X------------------------------------|
A|--6--------3-3-3--X-X-X--X-X-X--1-1-1------------------------------------|
E|------------------4-4-4--3-3-3-------------------------------------------|

Verse 

e|-------------------------------------------------------------------------|
B|-------------------------------------------------------------------------|
G|-------------------------------------------------------------------------|
D|---55--55--55--5---66--6----88--85---------------------------------------|
A|--6---6---6---6-4-6---6-4--6---6----(end on 6)---------------------------|
E|-------------------------------------------------------------------------|

Bridge

e|-------------------------------------------------------------------------|
B|-------------------------------------------------------------------------|
G|-------------------------------------------------------------------------|
D|--------------111111-----------------------------------------------------|
A|--333333222222-----------------------------------------------------------|
E|--------------------444444--(end on 4)-----------------------------------|

Ending

e|-------------------------------------------------------------------------|
B|-------------------------------------------------------------------------|
G|-8-8-8--8----------------------------------------------------------------|
D|-X-X-X--X----------------------------------------------------------------|
A|-6-6-6--6----------------------------------------------------------------|
E|-------------------------------------------------------------------------|


Song Order:
Intro  x2
Chorus x1
Verse  x4
Chorus x1
Verse  x4
Chorus x1
Bridge x4
Chorus x1
Ending x1

============================================================================
Show more