• Song:

    Formula For My Illusion - The Damage Is Done

  • Artist:

    Misc Unsigned Bands

This is my first tab and I'd say I did pretty well.

Pre-Chorus
|-------------------------------|-----------------------------|\----|
|-------------------------------|-----------------------------------| \
|--6--6-6-6----6--6-6-6---------|--6--6-6-6-------------------|  \--| x2
|--6--6-6-6----6--6-6-6-7-7-7-7-|--6--6-6-6----2-2-2-4-4-4----------|  /
|--4--4-4-4----4--4-4-4-7-7-7-7-|--4--4-4-4----2-2-2-4-4-4----------| /
|-----------------------5-5-5-5-|--------------0-0-0-2-2-2----------|

Chorus

|-----------------------------------------------|\-----|
|------------------------------------------------------| \
|--6-6-6-6-6-6-6-6-6-6-6-6-6-6-6-6-6-6--6--4-----------|  \
|--6-6-6-6-6-6-6-6-6-6-6-6-6-6-6-6-6-6--6--4--4--------|   \
|--4-4-4-4-4-4-4-4-4-4-4-4-4-4-4-4-4-4--4--2--4--------|    \
|---------------------------------------------2--------|     \
                                                       x4
|------------------------------------------------------|     /
|------------------------------------------------------|    /
|--2-2-2-2-2-2-2-2-2-2-2-2-2-2-2-2-2-2--2-----2--------|   /
|--2-2-2-2-2-2-2-2-2-2-2-2-2-2-2-2-2-2--2--2--2--------|  /
|--0-0-0-0-0-0-0-0-0-0-0-0-0-0-0-0-0-0--0--2--0--------| /
|------------------------------------------0-----------|

|----------------------------------|-------------|
|----------------------------------|-------------|
|----------------------------------|--6--6-6-6-6-|
|--4-4-4-4-4-4-4-4-4-4-4-4-4-4-4-4-|--6--6-6-6-6-|  x4
|--4-4-4-4-4-4-4-4-4-4-4-4-4-4-4-4-|--4--4-4-4-4-|
|--2-2-2-2-2-2-2-2-2-2-2-2-2-2-2-2-|-------------|

Verse 2

|-----------------------------------------------------------------|
|-----------------------------------------------------------------|
|--6--6-6-6-6-6-6----------------------------------4--4-4-4-4-4-4-|
|--6--6-6-6-6-6-6--7--7-7-7-7-7-7--2--2-2-2-2-2-2--4--4-4-4-4-4-4-|
|--4--4-4-4-4-4-4--7--7-7-7-7-7-7--2--2-2-2-2-2-2--2--2-2-2-2-2-2-|
|------------------5--5-5-5-5-5-5--0--0-0-0-0-0-0-----------------|
      . . . . . .     . . . . . .     . . . . . .     . . . . . .
|-----------------------------------------------------------------|
|-----------------------------------------------------------------|
|--6--6-6-6-6-6-6----------------------------------4--4-4-4-4-4-4-|
|--6--6-6-6-6-6-6--7--7-7-7-7-7-7--2--2-2-2-2-2-2--4--4-4-4-4-4-4-|
|--4--4-4-4-4-4-4--7--7-7-7-7-7-7--2--2-2-2-2-2-2--2--2-2-2-2-2-2-|
|------------------5--5-5-5-5-5-5--0--0-0-0-0-0-0-----------------|
      . . . . . .     . . . . . .     . . . . . .     . . . . . .
|-----------------------------------------|
|-----------------------------------------|
|--6--6-6-6--6--6-6-6---------------------|
|--6--6-6-6--6--6-6-6--7--7-7-7--7--7-7-7-|
|--4--4-4-4--4--4-4-4--7--7-7-7--7--7-7-7-|
|----------------------5--5-5-5--5--5-5-5-|
      . . .     . . .     . . .     . . .
-----------------------------------------|
-----------------------------------------|
----------------------4--4-4-4--4--4-4-4-|
--2--2-2-2--2--2-2-2--4--4-4-4--4--4-4-4-|
--2--2-2-2--2--2-2-2--2--2-2-2--2--2-2-2-|
--0--0-0-0--0--0-0-0---------------------|
     . . .     . . .     . . .     . . .
|-----------------------------------------|
|-----------------------------------------|
|--6--6-6-6--6--6-6-6---------------------|
|--6--6-6-6--6--6-6-6--7--7-7-7--7--7-7-7-|
|--4--4-4-4--4--4-4-4--7--7-7-7--7--7-7-7-|
|----------------------5--5-5-5--5--5-5-5-|
      . . .     . . .     . . .     . . .
-----------------------------------------|
-----------------------------------------|
----------------------4--4-4-4--4--4-4-4-|
--2--2-2-2--2--2-2-2--4--4-4-4--4--4-4-4-|
--2--2-2-2--2--2-2-2--2--2-2-2--2--2-2-2-|
--0--0-0-0--0--0-0-0---------------------|
     . . .     . . .     . . .     . . .
|-----------------------------------------------------------|
|-----------------------------------------------------------|
|--6--6-6-6-6-6--9--9-9-9-9-9-------------------------------|
|--6--6-6-6-6-6--9--9-9-9-9-9--9---9-9-9-9-9--7---7-7-7-7-7-|
|--4--4-4-4-4-4--7--7-7-7-7-7--9---9-9-9-9-9--7---7-7-7-7-7-|
|------------------------------7---7-7-7-7-7--5---5-5-5-5-5-|
      . . .         . . .          . . .          . . .
|-----------------------------------------|
|-----------------------------------------|
|--6--6-6-6--6--6-6-6---------------------|
|--6--6-6-6--6--6-6-6--7--7-7-7--7--7-7-7-|
|--4--4-4-4--4--4-4-4--7--7-7-7--7--7-7-7-|
|----------------------5--5-5-5--5--5-5-5-|
      . . .     . . .     . . .
--------------------------------------|
--------------------------------------|
------------------------------4~------|
--2-2-2-2-2-2-2-2-2-2-2-------4~------|
--2-2-2-2-2-2-2-2-2-2-2-------2~------|
--0-0-0-0-0-0-0-0-0-0-0---------------|

Pre-Chorus 2
|--------------------------------------------------|
|--------------------------------------------------|
|--6-6-6-6-6-6-6-6-6-6-6-6-6-6-6-6-6-6-6-6---------|
|--6-6-6-6-6-6-6-6-6-6-6-6-6-6-6-6-6-6-6-6-7-7-7-7-|
|--4-4-4-4-4-4-4-4-4-4-4-4-4-4-4-4-4-4-4-4-7-7-7-7-|
|------------------------------------------5-5-5-5-|

------------------------------------------------------|
------------------------------------------------------|
--6-6-6-6-6-6-6-6-6-6-6-6-6-6-------------------------|
--6-6-6-6-6-6-6-6-6-6-6-6-6-6-2-2-2-2-2-2-4-4-4-4-4-4-|
--4-4-4-4-4-4-4-4-4-4-4-4-4-4-2-2-2-2-2-2-4-4-4-4-4-4-|
------------------------------0-0-0-0-0-0-2-2-2-2-2-2-|
Chorus

Bridge
|------------------------------------------------------------------|
|------------------------------------------------------------------|
|--6-6-6-6-6-6-6-6-------------------------------------------------|
|--6-6-6-6-6-6-6-6-7-7-7-7-7-7-7-7-9-9-9-9-9-9-9-9-4-4-4-4-4-4-4-4-|
|--4-4-4-4-4-4-4-4-7-7-7-7-7-7-7-7-9-9-9-9-9-9-9-9-4-4-4-4-4-4-4-4-|
|------------------5-5-5-5-5-5-5-5-7-7-7-7-7-7-7-7-2-2-2-2-2-2-2-2-|

|------------------------------------------------------------------|
|------------------------------------------------------------------|
|--6-6-6-6-6-6-6-6---------------------------------4-4-4-4-4-4-4-4-|
|--6-6-6-6-6-6-6-6-7-7-7-7-7-7-7-7-2-2-2-2-2-2-2-2-4-4-4-4-4-4-4-4-|
|--4-4-4-4-4-4-4-4-7-7-7-7-7-7-7-7-2-2-2-2-2-2-2-2-2-2-2-2-2-2-2-2-|
|------------------5-5-5-5-5-5-5-5-0-0-0-0-0-0-0-0-----------------|

|-------------------------------------------------------------------------|
|-------------------------------------------------------------------------|
|--6--6--6--6--6--6--9--9--9--9--9--9-------------------------------------|
|--6--6--6--6--6--6--9--9--9--9--9--9--9--9--9--9--9--9--7--7--7--7--7--7-|
|--4--4--4--4--4--4--7--7--7--7--7--7--9--9--9--9--9--9--7--7--7--7--7--7-|
|--------------------------------------7--7--7--7--7--7--5--5--5--5--5--5-|

------------------------------------------------------------------------|
------------------------------------------------------------------------|
--6--6--6--6--6--6--9--9--9--9--9--9------------------------------------|
--6--6--6--6--6--6--9--9--9--9--9--9--9--9--9--9--9--9--7--7--7--7--7--7|
--4--4--4--4--4--4--7--7--7--7--7--7--9--9--9--9--9--9--7--7--7--7--7--7|
--------------------------------------7--7--7--7--7--7--5--5--5--5--5--5|

|--------------------------------------------------------------------------|
|--------------------------------------------------------------------------|
|--6-6-6-6-6-6-6-6-6-6-6-6-9-9-9-9-9-9-9-9-9-9-9-9-------------------------|
|--6-6-6-6-6-6-6-6-6-6-6-6-9-9-9-9-9-9-9-9-9-9-9-9-9-9-9-9-9-9-9-9-9-9-9-9-|
|--4-4-4-4-4-4-4-4-4-4-4-4-7-7-7-7-7-7-7-7-7-7-7-7-9-9-9-9-9-9-9-9-9-9-9-9-|
|--------------------------------------------------7-7-7-7-7-7-7-7-7-7-7-7-|

--------------------------|
--------------------------|
--------------------------|
--7-7-7-7-7-7-7-7-7-7-7-7-|
--7-7-7-7-7-7-7-7-7-7-7-7-|
--5-5-5-5-5-5-5-5-5-5-5-5-|

|----------------------------------|-------------|
|----------------------------------|-------------|
|----------------------------------|--6--6-6-6-6-|
|--4-4-4-4-4-4-4-4-4-4-4-4-4-4-4-4-|--6--6-6-6-6-|  x4
|--4-4-4-4-4-4-4-4-4-4-4-4-4-4-4-4-|--4--4-4-4-4-|
|--2-2-2-2-2-2-2-2-2-2-2-2-2-2-2-2-|-------------|

Pre-Chorus 1
Pre-Chorus 2
Chorus
Done :)

                                            -F.F.M.I.
Show more