• Song:

    Gentaro Satomura - Neo-classical Sweep

  • Artist:

    Misc Unsigned Bands

sponsored links
I tabbed this little part of the song by ear and watching the video so it should be 100%
but feel free to e-mails me more any problems/suggestions at >>>  xander1711@hotmail.com

i've only tabbed the main sweep riff so far. enjoy

NOTE - this whole sequence needs to be played in approx 4 seconds each time through so
you're new to sweeping I suggest learning this riff slowly at first then speed up
(don't run before you can walk) also if you enjoy this then you will probably enjoy 
"sweeping" exercise.

p = pull off
h = hammer on

|-17p13-----------13h17p13----------13h17p13--------|
|-------15----15-----------15----15----------15-----|
|----------14-----------------14----------------14--|
|---------------------------------------------------|
|---------------------------------------------------|
|---------------------------------------------------|

|-13p10----------10h13p10----------10h13p10---------|
|-------11----11----------11----11----------11------|
|----------10----------------10----------------10---|
|---------------------------------------------------|
|---------------------------------------------------|
|---------------------------------------------------|

|-13p10----------10h13p10----------10h13p10---------|
|-------12----12----------12----12----------12------|
|----------10----------------10----------------10---|
|---------------------------------------------------|
|---------------------------------------------------|
|---------------------------------------------------|

|-15p12----------12h15p12----------12h15p12---------|
|-------13----13----------13----13----------13------|
|----------12----------------12----------------12---|
|---------------------------------------------------|
|---------------------------------------------------|
|---------------------------------------------------|<<

                
Show more
sponsored links
sponsored links