• Song:

    Gotcha - Mathilda Da Wicked Witch

  • Artist:

    Misc Unsigned Bands

sponsored links
Mathilda da Wicked Witch.

Piano Intro

Swithc tussen deze twee.

|-----------  2 maten, dan tussen deze  |------------|
|-----------                            |------------|
|-----------                            |------------|
|---13--11--                            |--13---11---|
|---11--11--                            |--9----9----|
|-----------                            |------------|

Couplet

|------------------------------------------------|
|------------------------------------------------|
|- 8-8--10-11--11-------8-8--10-11-11-10-11—-8---|
|------------------------------------------------|
|------------------------------------------------|
|------------------------------------------------|


Chorus:
Mathilda, Mathilda…….

|-----------------------------------|
|-----------------------------------|
|--8-6------------------------------|
|------------6-----------------9----|
|--------6-9---------------6-9------|
|-----------------------------------|   8x
Show more
sponsored links
sponsored links