• Song:

    Mauro - Savage

  • Artist:

    Misc Unsigned Bands

sponsored links
Mauro Pawlowski - savage

Not quite done yet, still needs a variation. But here's the basics, already.

verse

e|------------------------------------------------------------------------------|
B|--------------------------3---------------------------------------------------|
G|--------------------------5---------------------------------------------------|
D|-2----2----0----2----x----0----3---3---3----0---------------------------------|
A|-2----2----0----2----x----5----3---3---3----0---------------------------------|
E|-0----0----0----0----x----5----1---1---1----0---------------------------------|


e|---------------------------------------------------------------------------------|
B|--------------------------3------------------------------------------------------|
G|--------------------------5------------------------------------------------------|
D|-2----2----0----2----x----0----3----3----3----5----5-----------------------------|
A|-2----2----0----2----x----5----3----3----3----5----5-----------------------------|
E|-0----0----0----0----x----5----1----1----1----3----3-----------------------------|

CHORUS
e|----7----7----7----7-------5----5----5----5----5----------------------------------|
B|----x----x----x----x-------x----x----x----x----x---------8----8----8----8----8----|
G|----9----9----9----9-------x----x----x----x----x---------9----9----9----9----9----|
D|----9----9----9----9-------7----7----7----7----7---------9----9----9----9----9----|
A|----7----7----7----7-------7----7----7----7----7---------7----7----7----7----7----|
E|--0------------------------5----5----5----5----5---0------------------------------|


e|--------------------------------8---8---8---8---8------------------------------------|
B|----13----13----13----13--------x---x---x---x---x-----5---5---5---5---5--------------|
G|----14----14----14----14--------9---9---9---9---9-----6---6---6---6---6--------------|
D|----14----14----14----14--------10--10--10--10--10----7---7---7---7---7--------------|
A|----12----12----12----12--------10--10--10--10--10----7---7---7---7---7--------------|
E|----------------------------0---8---8---8---8---8-----5---5---5---5---5--------------|


e|-----8---8---8---8---8---------------|
B|-----x---x---x---x---x-----5---------|
G|-----9---9---9---9---9-----6---------|
D|-----10--10--10--10--10----7---------|
A|-----10--10--10--10--10----7---------|
E|-----8---8---8---8---8-----5---------|
Show more
sponsored links
sponsored links