• Song:

    Potbelleez - Dont Hold Back

  • Artist:

    Misc Unsigned Bands

Hey this is Potbelleez song Dont Hold Back
the intro is acoustic guitar then the rest is effects but
its the same chords for the whole song
Coments are welcome
H hammer-on
p pull-off

Tuning: Standard


Intro and Chorus
    F#      C#m         B5 F#
E|---2------4----4----------2----------|
B|---2------4h-5?5p-4-------2----------|
G|---3------4h-6?6p-4----4--3----------|
D|---4------4h-6?6p-4----4--4----------|
A|---4------4----4-------2--4----------|
E|---2----------------------2----------|

 Verses
      C#m
E|-----4------|
B|-----5------|
G|-----6------|
D|-----6------|
A|-----4------|
E|------------|

profile.myspace.com/index.cfm?fuseaction=user.viewprofile&friendID=43067625
Show more