Tabbed by Charles
Author/Artist: WWF 
Title: WWf Themes 
Transcribed by: Charles Young


The Rock

------------------------
------------------------
------------------------
--2----4-5-------------- Repeat ? times
--0----2-3--5--4545-3---
------------3----------- 

Stone Cold

listen for timing
---------------   ---------------------   
---------------   ---------------------   
---------------   ---------------------  
---------------   ---------------------   
0-0-0-2-0-0----   -0-0-0-2-0-0..-02-3--  
---------------   ---------------------   

------------------
------------------
------------------
------------------
-07-07-07-07-08-7-
------------------

Road Dogg (New Age Outlaws)

--------
--------
--------
-3-34-3-
-1-16-1-
--------

Mick Foley...IS GOD

---------------------
---------------------
---------------------
-7-7-7--2-2--2-2-2---
-5-5-5--4-4--0-0-0---
---------------------


American Badass is just a big massive rip-off of metallica's "sad but true" 
Have a listen to it... its basically exact...so if ya want the tab to takers song
well just look for "Sad But True"

i Know others but i cant be bothered putting em' up...
others like: 

Edge and Christian
Acolytes
Undertaker (phenom,original-deathmarch) 
Bossman
Show more