Intro for banjo and fiddle
Played over EmD5 AEmG5 D5
e | --------------------------------------------------------------------------- | 
B | ---------------------------------------------------0--3-3-2-0-------------- | 
G | -----------0-2-4-2-2-2-2-4-2-0---------------0-2-4------------------------- | 
D | -2-2-2-2-4---------------------2---2-2-2-2-4------------------------------- | 
A | --------------------------------------------------------------------------- | 
E | --------------------------------------------------------------------------- | 

e | --------------------------------------------------------------------------- | 
B | ---------------------------------------------------0--3-3-2---2-0---------- | 
G | -----------0-2-4-2-2-2-2-4-2-0---------------0-2-4----------2-------------- | 
D | -2-2-2-2-4---------------------2---2-2-2-2-4------------------------------- | 
A | --------------------------------------------------------------------------- | 
E | --------------------------------------------------------------------------- | 

E5
Gather up ye pots and cans,

E5
Gonna have to share the amps

D5
And move along from band to band,

A5
A race against the sinking sand.


E5
If the pigs come cruising by,

E5
We'll turn off all the lights

D5
And keep the stick from hittin' skin

A5
Until they're 'round the bend.

E5
This is where the Salt are sharing spit and sweat and steam.

D5                                   A5
The kids may all get out alive, but none of them go home the same.

E5
Another space is closed, you got no place left to go.

D5                                     A5
So go save someone else and don't you tell me 'bout no fire code.


E5
So welcome to the show,

D5                     A5
Down underground underneath below.

E5
Here you can make your own,

     G5        D5      
Just keep the smoke down.


E5
So welcome to the show,

D5                     A5
Down underground underneath below.

E5
Here you can make your own,

G5         D5      
Keep your smoke from rising.


E5
There's a Laundromat on Main,

E5
By night another place.

D5
From generators, vacant lots,

A5
To underneath the Coffee Shop.

E5
"Someone upstairs is cool,

E5
Just leave no trace of you."

D5
It's like a new inebriation

A5
Against Prohibition.

E5
Only catch is you can't post the time or place.

        D5                                  A5
You got whisper codes on down the lane, it works better anyway.

E5
See, we tried to be legit, we got bound in red tape,

   D5                      A5
So had to do it on the sly. This is your noise complaint.


E5
So welcome to the show,

D5                     A5
Down underground underneath below.

E5
Here you can make your own,

     G5        D5      
Just keep the smoke down.


E5
So welcome to the show,

D5                     A5
Down underground underneath below.

E5
Here you can make your own,

G5         D5          E5
Keep your smoke from rising.

G5         D5          E5
Keep your smoke from rising.


Fiddle solo played over  | C G | Am | 


E5
So we stand against the law, we stand against the law

D5                 C5                 E5
Singers, Dancers, Brewers, Drinkers stand against the law.

E5
So we stand against the law, we stand against the law

D5            C5                E5
We see a celebration and they see a battle call.

E5                              D5
So we stand against the law, we stand against the law

C5                       E5        
Let's put the Middlemen out of a job.

E5                              D5
So we stand against the law, we stand against the law

   C5                        E5
Is this a celebration or is this a battle call?



E5
So welcome to the show,

D5                     A5
Down underground underneath below.

E5
Here you can make your own,

     G5        D5      
Just keep the smoke down.


E5
So welcome to the show,

D5                     A5
Down underground underneath below.

E5
Here you can make your own,

G5         D5          E5
Keep your smoke from rising.


G5         D5          E5      
Keep your smoke from rising.


G5         D5          E5      
Keep your smoke from rising.



We stand against the law!





Ah Mischief Brew, stand against the law.
Olly.
Show more