Intro 
E|---------|---------||
B|---------|---------||
G|---------|---------||
D|-7-------|-7777777-||
A|-5-7-(x4)|-5555555-||
E|---5-----|---------||
             pm 
Verse
E|-----------||
B|-----------||
G|-----------||
D|-7---------||
A|-5-7-9-5-7-||
E|---5-7-3-5-||

Pre-Chorus
E|---------|---------||
B|---------|---------||
G|---------|---------||
D|-7-------|---------||
A|-5-9-(x2)|-5-7-(x2)||
E|---7-----|-3-5-----||

Chorus
E|---------||
B|---------||
G|---------||
D|-7-------||
A|-5-9-5-7-||
E|---7-3-5-||

Break-Off    
E|-----------------------||
B|-----------------------||
G|-----------------------||
D|-7-6---------777777777-||
A|-5-4-9-7-5-7-555555555-||
E|-----7-5-3-5-----------||
                pm

Drumsticks...
Intro
Verse x2
Pre-Chorus
Chorus
Verse x2
Pre-Chorus
Chorus
Break-Off
Chorus x2
Break-Off
Show more