-----------------------------------------------------------------------------          
        Mono - The Flames Beyond The Cold Mountain
-------------------------------------------------------------------------------

This tab owes a lot to (and is based on the one by) SilverSwift. Thanks, dude.


Gtr. 1, Tremolo+Delay:

e|------------------------------|--------------------------------------------|
B|------------------------------|--------------------------------------------|
G|------------------------------|--------------------------------------------|
D|---------6------5------3------|--------6------5------3---------------------|
A|---------8------6------5------|--------8------6------5---------------------|
E|------------------------------|--------------------------------------------|



e|------------------------------|--------------------------------------------|
B|------------------------------|--------------------------------------------|
G|------------------------------|--------------------------------------------|
D|---------6------8------3------|--------6------5------3---------------------|
A|---------8------6------5------|--------8------6------5---------------------|
E|------------------------------|--------------------------------------------|



e|---------------------------------------------------------------------------|
B|---------------------------------------------------------------------------|
G|---------------------------------------------------------------------------|
D|-----------------------------8------7-----6---5---3---1--------------------|
A|---------6------8-----10-----10-----8-----8---6---5---3--------------------|
E|---------------------------------------------------------------------------|


Starting here, Gtr. 2 does volume swells (volume down, hit a note, 
raise volume till audible) on these same chords
e|------------------------------|--------------------------------------------|
B|------------------------------|--------------------------------------------|
G|------------------------------|--------------------------------------------|
D|---------6------5------3------|--------6------5------3---------------------|
A|---------8------6------5------|--------8------6------5---------------------|
E|------------------------------|--------------------------------------------|



e|------------------------------|--------------------------------------------|
B|------------------------------|--------------------------------------------|
G|------------------------------|--------------------------------------------|
D|---------6------8------3------|--------6------5------3---------------------|
A|---------8------6------5------|--------8------6------5---------------------|
E|------------------------------|--------------------------------------------|


Gtr. 1 continues playing above chords, now hardly audible in the background. 

Gtr 2, clean:
(4x)
e|---------------------------------------------------------------------------|
B|----------------8---------7------------------------------------------------|
G|----------------------------------10------8--6---5-------------------------|
D|-----------10--------10-------10-------------------------------------------|
A|---------------------------------------------------------------------------|
E|---------------------------------------------------------------------------|

e|---------------------------------------------------------------------------|
B|-------------11--------9-----9/11-8----------------------------------------|
G|---------------------------------------8-8---------------------------------|
D|---------11-------11-------------------------------------------------------|
A|---------------------------------------------------------------------------|
E|---------------------------------------------------------------------------|


e|----------------------------11---------------------------------------------|
B|----------13-------14----------------13------------------------------------|
G|------13------13--------13-------13----------------------------------------|
D|---------------------------------------------------------------------------|
A|---------------------------------------------------------------------------|
E|---------------------------------------------------------------------------|



e|---------------------------------------------------------------------------|
B|---------------------------------11----------------------------------------|
G|----------12-----------13--------------12-----13---10----------------------|
D|------13---------13----------13--------------------------------------------|
A|---------------------------------------------------------------------------|
E|---------------------------------------------------------------------------|

The first time the last -10- is repeated for some bars.

The 3rd time this is played, Gtr. 1 changes to:

Gtr. 1, tremolo+delay:
(2x)
e|---------------------------------------------------------------------------|
B|---------------------------------------------------------------------------|
G|---------------------------------------------------------------------------|
D|--------6----8----10------------6----8----11--10---------------------------|
A|---------------------------------------------------------------------------|
E|---------------------------------------------------------------------------|


(1x)
e|---------------------------------------------------------------------------|
B|----9---8----6-----9--8---9-13---11-----9----8----6-----9----11----14---13-|
G|---------------------------------------------------------------------------|
D|---------------------------------------------------------------------------|
A|---------------------------------------------------------------------------|
E|---------------------------------------------------------------------------|



(2x)
e|---------------------------------------------------------------------------|
B|-----15-16---14---13------15-16---14---13------11------9---13---11---------|
G|---------------------------------------------------------------------------|
D|---------------------------------------------------------------------------|
A|---------------------------------------------------------------------------|
E|---------------------------------------------------------------------------|


(2x)
e|-----------15----16----20----------15----16----21----20--------------------|
B|---------------------------------------------------------------------------|
G|---------------------------------------------------------------------------|
D|---------------------------------------------------------------------------|
A|---------------------------------------------------------------------------|
E|---------------------------------------------------------------------------|



Then all hell breaks loose. I still can't seem to figure out what Gtr. 2
 does later on, any suggestions would be appreciated. Anything else,
 mistakes, comments, is welcome, too, just let me know.
Show more