• Song:

    Unity

  • Artist:

    Mono And Nikitaman

Intro
 e-----------------------------------|
 B-----------------------------------|
 G---5-5-----------------------5-5-5-|
 D-----------3-3-3-----5-5-----------|
 A-3-----------------------2-3-------|
 E-------0-1-------1-3---------------|

Verse (last time chorus) 
 e-----------------------------------|
 B-----------------------------------|
 G---5-5-----------5-5---------------|
 D----------3-3------------5-5-------|
 A-3-------------3-------------------|
 E-------0-1-----------1-3-----------|
Show more