• Song:

    Body Language

  • Artist:

    Monotonix

p =pull off 
h =hammer on
~ =hold note (let ring)
/ =slide up
\ =slide down
+ =mute string (dont let ring)

tuning is half step down so.....

D#|--------------------------------------------|
A#|--------------------------------------------|
F#|--------------------------------------------|
C#|--------------------------------------------| play 2x
G#|---11p9-------------------------------------|
D#|--------12p9-12-12-9~+----------------------|


then play this for the rest of the song
D#|--------------------------------------------|
A#|--------------------------------------------|
F#|--------------------------------------------|
C#|--------------------------------------------|
G#|---11p9-------------------------------------|
D#|--------12p9-12-12-9~\0---------------------|

play these breaks whenever he does
D#|--------------------------------------------|
A#|--------------------------------------------|
F#|--------------------------------------------|
C#|--------------------------------------------|
G#|---11p9-------------------------------------|
D#|--------12p9-12-12-9~-0-0-0+-0-0+----------|

and this
D#|--------------------------------------------------------|
A#|--------------------------------------------------------|
F#|--------------------------------------------------------|
C#|--------------------------------------------------------|
G#|---11p9---------11p9---------11p9---------11p9----------|
D#|--------12p9-5~------12p9-4~------12p9-2~------12p9-0~--|

and this just before the solo
D#|--------------------------------------------------|
A#|--------------------------------------------------|
F#|--------------------------------------------------|
C#|--------------------------------------------------|
G#|---11p9------------------7+-9+-11p9---------------|
D#|--------12p9-12-12-7h9-9-------------12p9-12-12---|


and thats all except the solo and p0wer chords part which i havent worked out yet


http://www.monotonix.com/
Show more