• Song:

    In This Legacy

  • Artist:

    Monty Are I

  • Album:

    Wall Of People

|-------------------------------------------|
|-------------------------------------------|
|-------------------------------------------|
|6-6-X-X-X-X-X-X------2-2-X-X-X-X-X-X-------|
|6-6-X-X-X-X-X-X x3---2-2-X-X-X-X-X-X--x3---|
|4-4-X-X-X-X-X-X------0-0-X-X-X-X-X-X-------|

|-----------------------------------------------|
|-----------------------------------------------|
|-----------------------------------------------|
|66--666-666-666-2-2---------22-----------------|
|66--666-666-666-2-2--1h2p1--22-1h2p1---x2------|
|44--444-444-444-0-0-------2-00------2----------|
                                p.m
Face to Face....

|-------------------------------------|
|-------------------------------------|
|-------------------------------------|
|666/88/99/11--22----------22---------|
|666/88/99/11--22--1h2p1---22 x2------|
|444/66/77/9---00-------2--00---------|

|--------------------------------------------|
|--------------------------------------------|
|----1h2p1-----1h2p1--------1h2--------------|
|66----------66-----------66------ x3--2-----|
|66----------66-----------44-----------2-x3--|
|44----------44-----------44-----------0-----|
 p.m          p.m       p.m
trust me cause so far...            just listen when i say


This is...
  Chorus
|-------------------------------------------|
|-------------------------------------------|
|---------2----------4----------------------|
|6--------2----------4--------4-------------|X2
|6x12-----0-x12------2x12-----4-x12---------|
|4----------------------------2-------------|
How.. what..  its insalting.. face
wing...fly.............sing this.....stop

|-------------------13p.h------------|
|------------------------------------|
|------------------------------------|
|6-6-X-X-X-X-X-X---------------------|
|6-6-X-X-X-X-X-X x2------------------|
|4-4-X-X-X-X-X-X---------------------|

Bass

|-----------------------------------|
|-----------------------------------|
|-----------------------------------|
|-22------------22--1h2p1----X2-----|
|-22--1h2p1-----00-------2----------|
|-00-------2----00------------------|

|----------------------------------------------------|
|----------------------------------------------------|
|----------------------------------------------------|
|666/88/99/11--22----------22--12-11-9---11-12p.h----|
|666/88/99/11--22--1h2p1---22-----------11-----------|
|444/66/77/9---00-------2—-00------------------------|

|--------------------------------------------|
|--------------------------------------------|
|----1h2p1-----1h2p1--------1h2--------------|
|66----------66-----------66------ x3-2------|
|66----------66-----------44----------2-x3---|
|44----------44-----------44----------0------|

|------------------------------------------------|
|------------------------------------------------|
|---------2------------4-------------------------|
|6--------2------------4------4----------X2------|
|6x12-----0-x12------2x12-----4-x12--------------|
|4----------------------------2------------------|
How.. what..  its insalting.. face
wing...fly.............sing this.....stop

|---------------------------------------------|
|---------------------------------------------|
|---------------------------------------------|
|2-------4-------6-------22-44-666-666--------|
|2-x6----4-x6----6---x6--22-44-666-666-----x2-|
|0-------2-------4-------00-22-444-444--------|

|-------------------------------------------------|
|-------------------------------------------------|
|-------------------------------------------------|
|6-6-X-X-X-X-X-X-------2-2-X-X-X-X-X-X------22-22-|
|6-6-X-X-X-X-X-X x3----2-2-X-X-X-X-X-X—x3---22-22-|
|4-4-X-X-X-X-X-X-------0-0-X-X-X-X-X-X------00-00-|


|-----------------------------------------|
|-----------------------------------------|
|---------2----------4--------------------|
|6--------2----------4--------4-----------|
|6x12-----0-x12------2x12-----4-x12-------|
|4----------------------------2-----------|

|---------------------------------------------------------|
|---------------------------------------------------------|
|---------------------------------------13----------------|
|6-22-22-22-22-222--4-x12—-1h2p1—1h2p1--X-----------------|
|6-22-22-22-22-222—-2-----------1-----1-11----------------|
|4-00-00-00-00-000--2-------------------------------------|

|-----------------------------------------------------|
|-----------------------------------------------------|
|-----------------------------------------------------|
|6-6-X-X-X-X-X-X------2-2-X-X-X-X-X-X--------------22-|
|6-6-X-X-X-X-X-X x3---2-2-X-X-X-X-X-X--x3—x12------22-|
|4-4-X-X-X-X-X-X------0-0-X-X-X-X-X-X--------------00-|

this should all be correct considering i played along with it about 3242134213412412 
on the stereo hope you can injoy like me!
guitarguy7776@aol.com
Show more