• Song:

    Dragstrip Superstar

  • Artist:

    Motley Crue

Artist: M?tley Cr?e
Song: Dragstrip superstar
Album: New Tattoo
Tab by gothik666 (danimanson666@hotmail.com)
standard tunning


riff 1 (00:08) x1
C----------------------------------------------------------
D----------------------------------------------------------
A----------------------------------------------------------
E-1------11-6--0-1------11-6-0-1------11-6-0-1------11-6-0-


verse riff (00:21)
C-----------------------------------------------------------------
D-----------------------------------------------------------------
A-----------------------------------------------------------------
E-9-9-9-9-9-9-9-9-9-9-9-9-9-9-9-9-6-6-6-6-6-6-6-6-6-6-6-6-6-6-6-6-
  _____________________________________________________________/
                           play x2
Continues...
C---------------------------------------------------------------------------------
D---------------------------------------------------------------------------------
A---------------------------------------------------------------------------------
E-10-10-10-10-10-10-10-10-10-10-10-10-10-10-10-10-8-8-8-8-8-8-8-8-8-8-8-8-8-8-8-8-

Continues...
C---------------------------------------------------------------------------------
D---------------------------------------------------------------------------------
A---------------------------------------------------------------------------------
E-10-10-10-10-10-10-10-10-10-10-10-10-10-10-10-10-7-0-5-7---0-5-0-9-0-7-9---0-7-0-


Chorus (00:48) x2
C---------------------------------------------------------------
D---------------------------------------------------------------
A---------------------------------------------------------------
E-1-1-1-1-1-1-1-1-4-4-4-4-4-4-4-4-9-9-9-9-9-9-9-6-6-6-6-6-6-6-6-


riff 1 again (01:02) x1
C------------------------------
D------------------------------
A------------------------------
E-1------11-6--0-1------11-6-0-


verse riff (01:09)
C-----------------------------------------------------------------
D-----------------------------------------------------------------
A-----------------------------------------------------------------
E-9-9-9-9-9-9-9-9-9-9-9-9-9-9-9-9-6-6-6-6-6-6-6-6-6-6-6-6-6-6-6-6-
  _____________________________________________________________/
                           play x2
Continues...
C---------------------------------------------------------------------------------
D---------------------------------------------------------------------------------
A---------------------------------------------------------------------------------
E-10-10-10-10-10-10-10-10-10-10-10-10-10-10-10-10-8-8-8-8-8-8-8-8-8-8-8-8-8-8-8-8-

Continues...
C---------------------------------------------------------------------------------
D---------------------------------------------------------------------------------
A---------------------------------------------------------------------------------
E-10-10-10-10-10-10-10-10-10-10-10-10-10-10-10-10-7-0-5-7---0-5-0-9-0-7-9---0-7-0-


Chorus again (01:35) x4
C---------------------------------------------------------------
D---------------------------------------------------------------
A---------------------------------------------------------------
E-1-1-1-1-1-1-1-1-4-4-4-4-4-4-4-4-9-9-9-9-9-9-9-6-6-6-6-6-6-6-6-

now play riff 1 (not complete, just a litte of it)

Guitar solo part (02:09) x4
C-----------------------------------------------------------------
D-----------------------------------------------------------------
A-----------------------------------------------------------------
E-4-4-4-4-4-4-4-4-6-6-6-6-6-6-6-6-1-1-1-1-1-1-1-1-1-1-1-1-1-1-1-1-

Riff 1 (02:33) (x2 or so, just follow the rythm)

Chorus again (03:08) x8 (there are a very few variations, but it's same structure)




                    ...END...
Show more