• Song:

    Kick Start My Heart

  • Artist:

    Motley Crue

sponsored links
riff 1 3 times
C----------------------------------------------------------
D----------------------------------------------------------
A---------------------------------3--4-4-4-4-4-4-4-4-4-4-4-
E--2--3-4--4-4-4-4-4-2--2-2-2-2-2--------------------------

verse riff (00:36) x2
C-----------------------------------------------------------------------------------------------
D-----------------------------------------------------------------------------------------------
A----------------------------------------------------------------2------------6-4--4-4-4-4--6-4-
E-2-3-4--4-4-4-4-4-4-4-4-4-4-4--2-3-4--4-4-4-4-4-4-4-4-4-4-4-4-4------2----4--------------------

pre-chorus x2
C-----------
D-----------
A-----------
E-2-3-4--4--

chorus 
C---------------------------------------------------------------------------------------------------------------
D---------------------------------------------------------------------------------------------------------------
A---------------------------4--4-4-4-4-4-4-4-4-4-4-4-4-4---------------------------4--4-4-4-4-4-4-4-4-4-4-4-4-4-
E-4--4-4-4-4-4-2--2-2-2-2-------------------------------4--4-4-4-4-4-2--2-2-2-2-2------------------------------

C----------------------------------------------------------------------------------------------------
D----------------------------------------------------------------------------------------------------
A-----------2---------------------------4--4-4-4-4-4-4-4-4-4-4-4-4-4-4-------------------------------
E-0-1-2-3-4---4--4-4-4-4-4-2--2-2-2-2-2--------------------------------4--4-4-4-4-4-4-2--2-2-2-2-2-2-

C------------------------------------------------------------------
D------------------------------------------------------------------
A-4--4-4-4-4-4-4-4-4-4-4-4-4-4-4-4-4-4-4-4-4-4-4-4-4-----------2---
E----------------------------------------------------0-1-2-3-4---4-

riff 2 x4 (01:28)
C------------------------------------------------------------------------------------------------------------
D------------------------------------------------------------------------------------------------------------
A------------------------------------------------------------------------------------------------------------
E-4-4-4-4-4-4-4-4-4-4-4--2-3-4--4-4-4-4-4-4-4-4-4-4-4--2-3-4--4-4-4-4-4-4-4-4-4-4-4--2-3-4--4-4-4-4-4-4-4-4-4-4-4-
verse riff again x2 (01:38)
pre-chorus x2

chorus again x1 

 x1
C----------------------------------------------------------------------------------------
D----------------------------------------------------------------------------------------
A-----------2-----------4----------------4----------------2-----------4----------------4-
E-0-1-2-3-4---4----2-----------4----2-----------0-1-2-3-4---4----2-----------4----2------

 x1
C-----------------------------------------------------------------------
D-----------------------------------------------------------------------
A---------------------4--4-4-4-4-4-4-------------------4---4--4-4-4-4-4-
E-2-4---4--4-2---2--2----------------4---4--4-2---2--2------------------
please rate this tab
Show more
sponsored links
sponsored links