• Song:

    Rock Em Dead

  • Artist:

    Motley Crue

This is the whole song start to finish, a few tips are the 0's
that are repeated between the notes are palm muted lightly
and you can listen to the song to get timeing. Really none
of this is nearly as hard as it looks but the solo. 
I'm pretty sure this is right! sonds good when i play it.


e|-------------------|
B|-------------------|
G|-------------------|
D|-------------------|
A|--5--8--7--9--8/7--|
E|--3006005007006/5--|x10


e|---------------------------------------------------|
B|---------------------------------------------------|
G|---------------------------------------------------|
D|---------------------------------------------------|
A|--5--5--5--5--8/7-5--5--5--5--8/7-3--3--3--3--8/7--|
E|--3003003003006/5-3003003003006/5-1001001001006/5--|x4



e|-------------------|
B|-------------------|
G|-------------------|
D|-------------------|
A|--5--8--7--9--8/7--|
E|--3006005007006/5--|x8


e|---------------------------------------------------|
B|---------------------------------------------------|
G|---------------------------------------------------|
D|---------------------------------------------------|
A|--5--5--5--5--8/7-5--5--5--5--8/7-3--3--3--3--8/7--|
E|--3003003003006/5-3003003003006/5-1001001001006/5--|x4


e|-------------------|
B|-------------------|
G|-------------------|
D|-------------------|
A|--5--8--7--9--8/7--|
E|--3006005007006/5--|x8


solo
e|--13b--11-13--10-11-13-10-11-13-13-10-11-13--10-11-13-10---10--------------|
B|---------------------------------------------------------13---13b-13b--11--|
G|---------------------------------------------------------------------------|
D|---------------------------------------------------------------------------|
A|---------------------------------------------------------------------------|
E|---------------------------------------------------------------------------|



e|-------------------------------------------------------------|
B|--11-13-11---------------------------------------------------|
G|-----------12-12-11-10-10----10-8----------------------------|
D|--------------------------10-------10-8-----8----------------|
A|-----------------------------------------10---10-8-86----8b--|
E|--------------------------------------------------------8----|



e|----------------------------5-8-8-8----------------------17-20-17-20-20-17--|
B|--------------------5-8-8-8----------17-17-20-20-17-20b---------------------|
G|-----------5-7-7-7----------------------------------------------------------|
D|--5-7-7-7-------------------------------------------------------------------|
A|----------------------------------------------------------------------------|
E|----------------------------------------------------------------------------|




e|-----------17-20-20--------17-20-17-20-17--------17-17----17--|
B|--17-19-20-----------17-20-----------------17-20-------20-----|
G|--------------------------------------------------------------|
D|--------------------------------------------------------------|
A|--------------------------------------------------------------|
E|--------------------------------------------------------------|




e|--20-20-------17h20--------17h20-20b-------|
B|--------17h20-------17h20-------------11b--|
G|-------------------------------------------|
D|-------------------------------------------|
A|-------------------------------------------|
E|-------------------------------------------|



e|--8----------------------------------------------------|
B|----11-8-8---------------------------------------------|
G|-----------11-10-10-8-----8----------------------------|
D|-----------------------10----10-8-----8----------------|
A|-----------------------------------10---10-86----------|
E|-----------------------------------------------8-6-6b--|



e|---------------------------------------------------------------|
B|----------------------------------------8h11p8h11p8h11p8h10p8--|
G|-----------------------------------8-8-------------------------|
D|------------------------8-8-10-10------------------------------|
A|----------6-6-8-8-10-10----------------------------------------|
E|--6-6-8-8------------------------------------------------------|



e|------------------------------------5--5--------------------|
B|-----------------------------------------8-7-5-----5--------|
G|---------------------------5-------------------8-7---8-7-5--|
D|--x-5---5---5---5---5--------7---5--------------------------|
A|-----7---7---7---7---7-5-7----------------------------------|
E|------------------------------------------------------------|

e|----------------------------------------------------------|
B|----------------------------------------------------------|
G|--4----5---------------------------------------7-7-10-10--|
D|----7-----7-5-7----------------------7-7-10-10------------|
A|--------------------------8-8-10-10-----------------------|
E|----------------8-8-10-10---------------------------------|

e|------------8----8h10----12----12------12---|
B|--8-8-10-10---10---------15b---15b-----15b--|
G|--------------------------------------------|
D|--------------------------------------------|
A|--------------------------------------------|
E|--------------------------------------------|


e|-------------------|
B|-------------------|
G|-------------------|
D|-------------------|
A|--5--8--7--9--8/7--|
E|--3006005007006/5--|


e|---------------------------|
B|---------------------------|
G|---------------------------|
D|---------------------------|
A|--5----8----7----9---8-/7--|
E|--3----6----5----7---6-/5--|


This is my first compleat song so please rate an ROCK ON!!!
Show more