• Song:

    Sick Love Song

  • Artist:

    Motley Crue

  • Album:

    Red White & Crue

Tabbed By : shaggyd
e-mail: exviter989@msn.com

Tuning: DADG

Intro/Verse X4
G|----------------------------------------------------------|
D|----------------------------------------------------------|
A|----------------------------------------------------------|
D|--/-0-0---7--0--6--5-5--6--3----0-0---7--0--6--5-5--6--3--|

G|------------------------------------------|
D|------------------------------------------|
A|------------------------------------------|
D|--0-0---7--0--6--5-5--6--3--0-5b-0-5b-3b--|

The part where he sings "HA HA" X2
G|--------------------------------------------------------|
D|--------------------------------------------------------|
A|--------------------------------------------------------|
D|--0-0---7--0--6--5-5--6--3----0-0---7--0--6--5-5--6--3--|

Verse X2
G|---------------------------------------------------------|
D|---------------------------------------------------------|
A|---------------------------------------------------------|
D|---0-0---7--0--6--5-5--6--3----0-0---7--0--6--5-5--6--3--|

G|------------------------------------------|
D|------------------------------------------|
A|------------------------------------------|
D|--0-0---7--0--6--5-5--6--3--0-5b-0-5b-3b--|

Pre-Chorus
G|------------------------------------------------------------------|
D|------------------------------------------------------------------|
A|------------------------------------------------------------------|
D|--2--2-2-2-2-2-2--3--3-3-3-3-3-3--4--4-4-4-4-4-4--5--5-5-5-5-5-5--|

Chorus X2
G|-----------------------------------------------------------------|
D|-----------------------------------------------------------------|
A|-----------------------------------------------------------------|
D|--0--7p-5-7b--5---5p-3-5b--3----0--7p-5-7b--5---3-3-3-3-5-5-5-5--|

Guitar fill 
G|-------|
D|-------|
A|-------|
D|--7~--|

Verse X2
G|----------------------------------------------------------|
D|----------------------------------------------------------|
A|----------------------------------------------------------|
D|--/-0-0---7--0--6--5-5--6--3----0-0---7--0--6--5-5--6--3--|

G|------------------------------------------|
D|------------------------------------------|
A|------------------------------------------|
D|--0-0---7--0--6--5-5--6--3--0-5b-0-5b-3b--|


"HA HA" X2
G|--------------------------------------------------------|
D|--------------------------------------------------------|
A|--------------------------------------------------------|
D|--0-0---7--0--6--5-5--6--3----0-0---7--0--6--5-5--6--3--|

Pre-Chorus
G|------------------------------------------------------------------|
D|------------------------------------------------------------------|
A|------------------------------------------------------------------|
D|--2--2-2-2-2-2-2--3--3-3-3-3-3-3--4--4-4-4-4-4-4--5--5-5-5-5-5-5--|

Chorus X2
G|-----------------------------------------------------------------|
D|-----------------------------------------------------------------|
A|-----------------------------------------------------------------|
D|--0--7p-5-7b--5---5p-3-5b--3----0--7p-5-7b--5---3-3-3-3-5-5-5-5--|

Bridge X2
G|--------------------------------------------------------------------------
D|--------------------------------------------------------------------------
A|--------------------------------------------------------------------------
D|--2-2-2-2-2-2-2-2-3-3-3-3-3-3-3-3-9-9-9-9-9-9-9-9-10-10-10-10-10-10-10-10-

Solo X2
G|-----------------------------------------------------------------|
D|-----------------------------------------------------------------|
A|-----------------------------------------------------------------|
D|--2-2-2-2-2-2-2-2-2-2-2-2-2-2--3--2-2-2-2-2-2-2-2-2-2-2-2--5--0--|

Guitar Intro
 Basically all you have to do, if you choose to do so, is just ride on the Low D-String with the beat.

Chorus X4
G|-----------------------------------------------------------------|
D|-----------------------------------------------------------------|
A|-----------------------------------------------------------------|
D|--0--7p-5-7b--5---5p-3-5b--3----0--7p-5-7b--5---3-3-3-3-5-5-5-5--|

Bridge X4
G|---------------------------------------------------------------------------|
D|---------------------------------------------------------------------------|
A|---------------------------------------------------------------------------|
D|--2-2-2-2-2-2-2-2-3-3-3-3-3-3-3-3-9-9-9-9-9-9-9-9-10-10-10-10-10-10-10-10--|

Outro
G|---------------------------------------------------------|
D|---------------------------------------------------------|
A|---------------------------------------------------------|
D|---0-0---7--0--6--5-5--6--3----0-0---7--0--6--5-5--6--3--|

G|------------------------------------------|
D|------------------------------------------|
A|------------------------------------------|
D|--0-0---7--0--6--5-5--6--3--0-5b-0-5b-3b--|
Show more