• Song:

    Slice Of Your Pie

  • Artist:

    Motley Crue

slice of your pie
motley crue

D tuning- DGCFAD

h- hammer on
p- pull off
\\- slide down
/- slide up
^- arm up
\\/- arm down
^(#)- tremolo
(#)- ghost note
~- let ring
b- bend
ph- pinch harmonic
/^/- random trilling

intro- acoustic
d--0----------------------------
g--0----8----10---13----5--7--9-
c--1----7----9----12----5--7--9-
f--2----6----8----11----5--7--9-
a--2----7----9----12----3--5--7-
d--0----------------------------

gtr 2, acoustic with slide
d--------------------12-------------------------------------
g----------------12~-------12----10-------12-12-10----------
c--11/12----------------------------10/11----------10/11----
f--------12\\10----------12---12-------------------------12-
a-----------------------------------------------------------
d-----------------------------------------------------------

d-----------------------------
g--9----10---13----5-----7----
c--7----9----12----5--5--7--7-
f--6----8----11----5--5--7--7-
a--7----9----12----3--3--5--5-
d-----------------------------

gtr 2, acoustic with slide
d------------------12--12/15-12------------------------------------
g---------------12~-------------15-12-12-10--------12-12--10-------
c--11/12------------------------------------10/11------------10/11-
f--------12\\10----------------------------------------------------
a------------------------------------------------------------------
d------------------------------------------------------------------

verse
d---------------------------------------------------
g---------------------------------------------------
c---------------------------------------------------
f-------------------------------------------------2-
a-------------------------------------------------0-
d--0--0-3--3-5-5-5-5-3-5-3--3--0-0-3-3-5--5-5-5-3---

d-----------------------------------------------------
g-----------------------------------------------------
c-----------------------------------------------------
f-----------------------------------------------------
a-------------------------------------------------0-1-
d--0--0-3--3-5-5-5-5-3-5-3--3--0-0-3-3-5--5-5-5-3-----

chorus
d--------------------------
g--3~~--(3)--------------5-
c--2~~--(2)--------------4-
f--1~~--(1)---------2----2-
a--2~~--(2)----2-1--0------
d------------2-------------

verse
d---------------------------------------------------
g---------------------------------------------------
c---------------------------------------------------
f-------------------------------------------------2-
a-------------------------------------------------0-
d--0--0-3--3-5-5-5-5-3-5-3--3--0-0-3-3-5--5-5-5-3---

gtr 2, with slide
d-------------------------------------12\\---------------------------12---12-12-15~-
g---------------------------------/12------8-------------------12-12---12-----------
c---------------------------------------------7~------------------------------------
f-----------------------------------------------------------------------------------
a-----------------------------------------------------------------------------------
d-----------------------------------------------------------------------------------

d----------------------------------------------------------------------
g----------------------------------------------------------------------
c--------2-------2-----------------------------------------------------
f--2-2---0-2-2---0-----------------------------------------------------
a--0-0-3---0-0-3---------------------------------------------------0-1-
d-------------------0--0-3--3-5-5-5-5-3-5-3--3--0-0-3-3-5--5-5-5-3-----

gtr 2, with slide
d--15-/-17-/-----12--------------------------------
g-------------10---10-12---------------------------
c------------------------12------------------------
f----------------------------12--/--14--(14)--/-17-
a--------------------------------------------------
d--------------------------------------------------

chorus
d------------------------------------------------------------------
g--3-\\/---(3)-----------------------------------------------------
c--2-\\/---(2)-----------------------------------------------------
f--1-\\/---(1)---------2-------------------------------------------
a--2-\\/---(2)----2-1--0-------------0-0-1---------------------0-1-
d---------------2-----------0--0-3-3--------0--0-3-3-5-5-5-5-3-----

gtr 2, with slide
d--------------------12---12---12---12---12---12-----------
g----------------/12---12---12---12---12---12--------------
c--7~----7-/-9------------------------------------/12-9-9/-
f----------------------------------------------------------
a----------------------------------------------------------
d----------------------------------------------------------

d------12---12---12---12---12---12-/15--(15)\\-
g--/12---12---12---12---12---12----------------
c----------------------------------------------
f----------------------------------------------
a----------------------------------------------
d----------------------------------------------

chorus
d------------------------------
g--3----3-\\/-----2----(2)-----
c--2----2-\\/-----2----(2)-----
f--1----1-\\/-----2----(2)-----
a--2----2-\\/--1--0----(0)-----
d---------------------------3--

gtr 2, with slide
d-------------------
g--\\7-----------/9-
c--\\7-----------/9-
f-------------------
a-------------------
d-------------------

bridge- arpeggio
d----------------------------------------------------------------------
g----------7---------------8----------------10-------------------------
c------9-----9--9------7-----7---7------9------9---9-------12-----5--7-
f----9--9-----9------6--6------6------8--8-------8-------11-------5--7-
a------------------7----------------9-----------------12------12--3--5-
d--0-------------------------------------------------------------------

solo                
                  ph                ph
d--------------------------------------
g--------------------------------------
c--------------------------------------
f--2-2--0-0-1-0--0---2-2--0-0-1-0--0---
a--0-0----------3-3--0-0----------3-3--
d--------------------------------------

gtr 2
d-22-22-22-22-22-17--17------17--------17---17-20-17-20-17-17---17--17--17---------
g------------------20--20-20---20-17-20--20-------------------20--20--20--20-19-17-
c----------------------------------------------------------------------------------
f----------------------------------------------------------------------------------
a----------------------------------------------------------------------------------
d----------------------------------------------------------------------------------

d--------------------------
g--18-19-18-19p18-19p18-19-
c--------------------------
f--------------------------
a--------------------------
d--------------------------

gtr 1                                      ph
d---------------------------------------------
g---------------------------------------------
c---------------------------------------------
f----------------------------2-2--0-0-1-0--0--
a--2-2--0-0-1-0--0-----------0-0----------3-3-
d--0-0----------3-3---------------------------

gtr 2
      right hand tapping
d-----------------------------15-12-15-12--------------------------5-----5-----
g--19^(12)-\\/^\\/-^(19)--15--------------15p12\\10-12-\\/-^12--8-8-8-5-8--8-7-
c------------------------------------------------------------------------------
f------------------------------------------------------------------------------
a------------------------------------------------------------------------------
d------------------------------------------------------------------------------

d---------------5------5---------------------------
g--5--5---5-7-8--8-5-8--8-7-5--7-5----------5--5-8-
c----7--7---------------------8---8-7-5-6-7--7-----
f--------------------------------------------------
a--------------------------------------------------
d--------------------------------------------------

gtr 1
d----------------------------------------
g----------------------------------------
c----------------------------------------
f----------------------------------------
a--2-2--0-0-1-0--0-----2-2--0-0-1-0--0-1-
d--0-0----------3-3----0-0----------3----

gtr 2
d--15-\\/-12-^-12--17-18-19-19---19---19--19--19-----19----19----21----
g------------------------------22---22--22--22-------------------------
c-------------------------------------------------21----21----21----21-
f----------------------------------------------------------------------
a----------------------------------------------------------------------
d----------------------------------------------------------------------

chorus
d----------------------------------------
g--3------3------------------------------
c--2------2------------------------------
f--1------1----------2-------------------
a--2------2-----2-1--0-------------0-0-1-
d-------------2-----------0--0-3-3-------

gtr 2
d--22-22\\/^-22~--(22)------------12--12--12--12--12-------------
g---------------------------2--/12--12--12--12--12--12-----------
c----------------------\\7--2---------------------------/12-9-9~-
f----------------------\\7--2------------------------------------
a----------------------------------------------------------------
d----------------------------------------------------------------

d-----12--12--12--12--12--12--12-14-15-16-17-18--19~------
g--/12--12--12--12--12--12----------------------------\\7-
c-----------------------------------------------------\\7-
f-----------------------------------------------------\\7-
a---------------------------------------------------------
d---------------------------------------------------------

gtr 1
d---------------------------------------------------
g-------------------------------------------------3-
c-------------------------------------------------2-
f-------------------------------------------------1-
a-------------------------------------------------2-
d---------------------------------------------------

gtr 1
d------------------
g--3-\\/-----------
c--2-\\/---------2-
f--1-\\/---------2-
a--2-\\/----2-1--0-
d---------2--------

gtr 2
d------------------
g--/7-----------2--
c--/7-----------2--
f--/7-----------2--
a------------------
d------------------

gtr 1, arpeggio
d-----------------------------------------------------------
g--------7------------8------------10-------------13--------
c------9---9--------7---7--------9----9---------12---12-----
f----9-------9----6-------6-----8-------8-----11--------11--
a--7------------7-------------9------------12---------------
d-----------------------------------------------------------

gtr 2
d----------------------------------------------------------------
g----------------------------------------------------------------
c----------------------------------------------------------------
f------------------------------------------7--7---------7--7-----
a-----------------------------------------------5-4--2-------5-4-
d-----------------------------------------------3-2--0-------3-2-

gtr 2
d-------------------------------
g-------------------------------
c-------------------------------
f----4--5--7/9-----7--7---------
a--2------------9-------5-4--2--
d--0--------------------3-2--0--

gtr 1, arpeggio                                  ph   ph
d-------------------------------------------------------
g--------7------------8------------10-------------------
c------9---9--------7---7--------9----9----9-7---9-7----
f----9-------9----6-------6----8--------8------9------9-
a--7------------7------------9--------------------------
d-------------------------------------------------------

gtr 2
d--------------------------------------------------
g--------------------------------------------------
c--------------------------------------------------
f-----------------------------------------7--7-----
a----------------------------------------------5-4-
d----------------------------------------------3-2-

gtr 1, arpeggio                                 
d---------------------------------------------------------
g--------7------------8------------10--------------13-----
c------9---9--------7---7--------9----9---------12---12---
f----9-------9----6-------6----8--------8----11--------11-
a--7------------7------------9-------------12-------------
d---------------------------------------------------------

gtr 2
d----------------------------------------------------------------------------------
g----------------------------------------------------------------------------------
c----------------------------------------------------------------------------------
f------------------------------------------------------------4--5--7/9----7--7-----
a----------------------------------------------------------2-----------9-------5-4-
d----------------------------------------------------------0-------------------3-2-
 
d-----------------
g-----15b----(15)-
c-----14b----(14)-
f-----------------
a--2--------------
d--0--------------

d--------------------------------------------
g-----------------8--8---7b-8b--7b-----------
c-----------------9b-9b----------------------
f--7--7-----------------------------7--7-----
a-------5-4----2-------------------------5-4-
d-------3-2----0-------------------------3-2-

questions email me- valkeyrie3@hotmail.com
Show more