• Song:

    Starry Eyes

  • Artist:

    Motley Crue

  • Album:

    Music To Crash Your Car...

starry eyes
motley crue

x- muted note
pm- palm mute
x< - pick scrape down fret board
h- hammer on
p- pull off
b- bend

D tuning- DAFCGD

intro- x2
d-------------------------------------------------
a-------------------------------------------------
f-------------------------------------------------
c--14-x-x-14-14-12-14-12-10-x-x-10-10-12-10-12-14-
g--14-x-x-14-14-12-14-12-10-x-x-10-10-12-10-12-14-
d--12-x-x-12-12-10-12-10-8--x-x-8--8--10-8--10-12-

verse- x2
d---------------------------------------------------------
a---------------------------------------------------------
f---------------------------------------------------------
c--14--14-14-14--12--12-12-12--10--10-10-10--12--12-12-12-
g--14--14-14-14--12--12-12-12--10--10-10-10--12--12-12-12-
d--12--12-12-12--10--10-10-10--8---8--8--8---10--10-10-10-


chorus     
         pm--------------|           x2
d--------------------------|-------------------------------
a--------------------------|-------------------------------
f--------------------------|-------------------------------
c-------14-14-14-14-14-14--|-14--10-12--10-12--10----------
g--x<---14-14-14-14-14-14--|-12--10-12--10-12--10--0--3--2-
d-------12-12-12-12-12-12--|-12--8--10--8--10--8-----------

intro again- x2
d-------------------------------------------------
a-------------------------------------------------
f-------------------------------------------------
c--14-x-x-14-14-12-14-12-10-x-x-10-10-12-10-12-14-
g--14-x-x-14-14-12-14-12-10-x-x-10-10-12-10-12-14-
d--12-x-x-12-12-10-12-10-8--x-x-8--8--10-8--10-12-

verse- x2
d---------------------------------------------------------
a---------------------------------------------------------
f---------------------------------------------------------
c--14--14-14-14--12--12-12-12--10--10-10-10--12--12-12-12-
g--14--14-14-14--12--12-12-12--10--10-10-10--12--12-12-12-
d--12--12-12-12--10--10-10-10--8---8--8--8---10--10-10-10-


chorus     
         pm--------------|           x2
d--------------------------|-------------------------------
a--------------------------|-------------------------------
f--------------------------|-------------------------------
c-------14-14-14-14-14-14--|-14--10-12--10-12--10----------
g--x<---14-14-14-14-14-14--|-12--10-12--10-12--10--0--3--2-
d-------12-12-12-12-12-12--|-12--8--10--8--10--8-----------

riff before solo

     x8                x2               x2             
d-----------------|-----------------|-----------------
a-----------------|-----------------|-----------------
f-----------------|-----------------|-----------------
c---------2-------|-----------------|---------2-------
g-0-3-2-3---3-2-3-|---------3-------|-0-3-2-3---3-2-3-
d-----------------|-0-3-2-3---3-2-3-|-----------------
     x2                x2
d------------------|-----------------
a------------------|-----------------
f------------------|-----------------
c------------------|---------2-------
g----------3-------|-0-3-2-3---3-2-3-
d--0-3-2-3---3-2-3-|-----------------

beginning of solo starts with one of these
power chords palm muted 5 times. i cant decide
which one at the moment, so you try for yourself

    PM--------------------|
d--------------------------
a--------------------------
f--------------------------
c--14-14-14-14-14-14-14-14-
g--14-14-14-14-14-14-14-14-
d--12-12-12-12-12-12-12-12-

then it goes off the rest of the solo

d---------------------------------------
a---------------------------------------
f--10b-10b-10b-10b-10b-10b-10-9h10p9h10-
c---------------------------------------
g---------------------------------------
d---------------------------------------

end of solo:
d---------------------------
a---------------------------
f--9-10--------11-12--------
c--------9-10---------11-12-
g---------------------------
d---------------------------

"ooh no....oh no"
d-----------------------
a-----------------------
f--10------12--------10-
c--10--9---12---11---10-
g--8---9---10---11---8--
d------7--------9-------

then it goes back to the chorus 
2 times and then an outro solo 
thats similar to the main one.

        __
      =/ /
     =/ /
    =/_/            
     |_           
     |_|          
     |_|  any questions or correction  
     |_|   email me, valkeyrie3@hotmail.com 
     |_|
     |_|
     |_|      
  / |_|
 / | |_|  _
   |_| (  
  |     / /
  | [===] | 
 /  [===]/|   
 |   ___/oo  
   |---| o )  
  ________/
Show more