• Song:

    Teaser

  • Artist:

    Motley Crue

  • Album:

    Supersonic & Demonic Re...

PM- palm mute
/- slide up
\\- slide down
b- bend
p- pull off

D tuning(low E string only)- DAdGBE

intro-(riff A)
do this seven times and go to riff B
do this sixteen times and go to riff C
E--------------------------------------------------
B--------------------------------------------------
G--------------------------------------------------
d--------------------------------------------------
A--------5-----3-0-2-------------------------------
D--0--0----0-5-------------------------------------

fill#1(riff B)
E--------------------------------------------------
B--------------------------------------------------
G--------------------------------------------------
d-----------3--------------------------------------
A-0-3-0-3-0---5------------------------------------
D--------------------------------------------------

fill#2(riff C)
E--------------------------------------------------
B--------------------------------------------------
G--5-5--7------------------------------------------
d--5-5--7------------------------------------------
A--3-3--5------------------------------------------
D--------------------------------------------------

Chorus(riff D) do this 3 times than go to riff E
E--------------------------------------------------
B--------------------------------------------------
G-5------------------------------------------------
d-5------------------------------------------------
A-3--5--0-0--000-0-000-0-000-0---------------------
D----5--0-0--000-0-000-0-000-0---------------------

riff E do this and than go into riff A
E--------------------------------------------------
B--------------------------------------------------
G---5----------------------------------------------
d---5----------------------------------------------
A---3-5-0------------------------------------------
D-----5-0------------------------------------------

Bridge(riff F)
do this 16 times until chours
E--------------------------------------------------
B--------------------------------------------------
G----7-7-5-57--------------------------------------
d----7-7-5-57--------------------------------------
A----5-5-3-35--------------------------------------
D--------------------------------------------------

FORMAT OF THE SONG!!!

intro-(riff A)x7
riff B x1
riff A x7
riff c x 1
riff A x4
riff D x2
riff E x1
riff A x3
riff B x1
riff A x3
riff C x1
riff A x2
riff D x4
riff E x4
Bridge(riff F) x 16
riff D x 4
riff A till end


HOPE YOU ENJOY THIS IS MY FIRST TAB!
Show more