• Song:

    Time For Change

  • Artist:

    Motley Crue

time for change
motley crue

h- hammer on
p- pull off
/- slide up
- slide down
x- palm mute
(#)- let ring
~- let ring
ph- pinch harmonic
h (above #'s)- harmonic

d tuning- DAFCGD


intro- organ

verse
    d/f#               Em                 C                d/f#   
d--------------------------------------------------------------------------------
a------3-------3---------0-------0----------1--------3---------3-----------------
f----4-------4---------0-------0----------0--------2---------4-------------------
c--5-----5-4-----4---2-----2-0------0------------0------0--5------5-5--0--2--4~~-
g--------------------------------------3-------3---------------------------------
d--------------------------------------------------------------------------------

   G      d/f#              Em                   C            D
d-------------------------------------------------------------------
a--(0)------3---------3---------0---------0----------1------------3-
f--(0)----4---------4---------0---------0----------0-----------2--2-
c--(0)--5------5--4------4--2------2--0------0--------------0-------
g--(x)------------------------------------------3--------3----------
d--(3)--------------------------------------------------------------

verse fill
d----------------------------
a--12-----8~-----8-----5~----
f--12-----9~-----9-----6~----
c----------------------------
g-------------------0------0-
d------7------7--------------

pre chorus
d-------------------------------------------------------------
a-------------------------------------------------------------
f------5-------7-------4------------------5-------5--5-----7~-
c----5---5---7---7---4---4--------------5---5--------5-----7~-
g--3-------5-------2--------7--5-5-5--3--------3-----3-----5~-
d-------------------------------------------------------------

gtr 2 acoustic
   C     D     Bm    Em    C      D 
d--0-----2-----2------0-----0------2~-
a--1-----3-----3------0-----1------3~-
f--0-----2-----4------0-----0------2~-
c--2-----0-----2------2-----2------0~-
g--3-----------2------2-----3---------
d---------------------0---------------

chours- x2
d-------------------------------------------------------3-
a----------------------3----5---------------------------3-
f--------------0(0)----2----4----7----5(5)----7----0------
c--0--2--4~----0(0)----0----2----7----5(5)----7----0------
g--------------x(x)----x---------5----3(3)----5----x------
d--------------3(3)----2---------------------------3------

verse
    d/f#               Em                 C                d/f#   
d--------------------------------------------------------------------------------
a------3-------3---------0-------0----------1--------3---------3-----------------
f----4-------4---------0-------0----------0--------2---------4-------------------
c--5-----5-4-----4---2-----2-0------0------------0------0--5------5-5--0--2--4~~-
g--------------------------------------3-------3---------------------------------
d--------------------------------------------------------------------------------

   G      d/f#              Em                   C            D
d-------------------------------------------------------------------
a--(0)------3---------3---------0---------0----------1------------3-
f--(0)----4---------4---------0---------0----------0-----------2--2-
c--(0)--5------5--4------4--2------2--0------0--------------0-------
g--(x)------------------------------------------3--------3----------
d--(3)--------------------------------------------------------------

verse fill
d----------------------------
a--12-----8~-----8-----5~----
f--12-----9~-----9-----6~----
c----------------------------
g-------------------0------0-
d------7------7--------------

pre chorus
d-------------------------------------------------------------
a-------------------------------------------------------------
f------5-------7-------4------------------5-------5--5-----7~-
c----5---5---7---7---4---4--------------5---5--------5-----7~-
g--3-------5-------2--------7--5-5-5--3--------3-----3-----5~-
d-------------------------------------------------------------

gtr 2 acoustic
   C     D     Bm    Em    C      D 
d--0-----2-----2------0-----0------2~-
a--1-----3-----3------0-----1------3~-
f--0-----2-----4------0-----0------2~-
c--2-----0-----2------2-----2------0~-
g--3-----------2------2-----3---------
d---------------------0---------------

chours- x2
d-------------------------------------------------------3-
a----------------------3----5---------------------------3-
f--------------0(0)----2----4----7----5(5)----7----0------
c--0--2--4~----0(0)----0----2----7----5(5)----7----0------
g--------------x(x)----x---------5----3(3)----5----x------
d--------------3(3)----2---------------------------3------

chorus- over solo x2, gtr 1
d-------------------------------------------------------3-
a----------------------3----5---------------------------3-
f--------------0(0)----2----4----7----5(5)----7----0------
c--0--2--4~----0(0)----0----2----7----5(5)----7----0------
g--------------x(x)----x---------5----3(3)----5----x------
d--------------3(3)----2---------------------------3------

solo- gtr 2
d-----------------------------------------------------------------------------
a-----------------------------------------------15-15--15---------------------
f--14-14--14(14)~~---14-14--14-14p12----------------------14-14-14p12----12~~-
c-------------------------------------14(14)~~------------------------14------
g-----------------------------------------------------------------------------
d-----------------------------------------------------------------------------

                   ph
d----------------------------------------------------------------
a----------------------------------------------------------------
f-----12-12-12-----12-12-12-12-12-12-12--------------------------
c--14----------14------------------------14-12-------------------
g----------------------------------------------14-12-10h12p10----
d-------------------------------------------------------------12-

d----------------------------------------------------------------------
a-------------------------------------------------------------15-15-15-
f---------------------------------14-----12-12-12-12-12-12-12----------
c---------------------------12h14----14--------------------------------
g--10-12-10-10--12-10-12/14--------------------------------------------
d----------------------------------------------------------------------

d-------------------------------------------------12----15-17--15-(15)--19-(19)-
a------------------------------12-15--13-17-15-19----20-------------------------
f--14-14-14-12----12-16--14-17--------------------------------------------------
c--------------14---------------------------------------------------------------
g-------------------------------------------------------------------------------
d-------------------------------------------------------------------------------

chorus gtr 1                                              feed back
d---------------------2--2-------------------------------------------
a---------------------3--3-----5-------------------------------------
f--0--2--4--2--0------2--2-----4-------------------5(5)--7~~~--------
c-----------------0---0--0--2--2--2-4-5-4-2--------5(5)--7~~~--------
g--------------------------------------------2~~~--3(3)--5~~~------x-
d--------------------------------------------------------------------

solo gtr 2
d--15-19-15-15-19-19-15-19--14-17-12-15-12-15-12h15-14-17p12-1510/14--1014-10-14-
a---------------------------------------------------------------------------------
f---------------------------------------------------------------------------------
c---------------------------------------------------------------------------------
g---------------------------------------------------------------------------------
d---------------------------------------------------------------------------------

gtr 2
   h
d--10-12-15-----12h15-14-17-12-1514/17--/7/10---7-10-7-10-8-12--8-12-8-12-10-10-
a--------------------------------------------------------------------------------
f--------------------------------------------------------------------------------
c--------------------------------------------------------------------------------
g--------------------------------------------------------------------------------
d--------------------------------------------------------------------------------

gtr 2 -this part is when gtr 1 gets the feed back in the chorus
d--14-14--10~~~--14~~~--(10)--(14)--------------------------------------
a-----------------------------------------------------------------------
f-----------------------------------------------------------------------
c-----------------------------------------------------12h14h16-12h14h16-
g--------------------------------------------12h14h16-------------------
d-----------------------------------12h14h16----------------------------

chorus- gtr 1
d--------------------------------------5-----------
a--------------------------------------5-----------
f------------11----9----7----9----2----------------
c--7~---6~---11----9----7----9----2-------2--4--6~-
g--7~---7~---9-----7----5----7----0----------------
d--5~---4~-----------------------------------------

gtr 2
d--------------------
a--------------------
f--14~~---------(14)-
c--------------------
g--------------------
d--------------------

chorus- gtr 1                                   ph  
d--------------------------------------5-----------
a--------------------------------------5-----------
f------------11----9----7----9----2----------------
c--7~---6~---11----9----7----9----2-------2--4--6~-
g--7~---7~---9-----7----5----7----0----------------
d--5~---4~-----------------------------------------

gtr 2
d--------------------------------------------------
a--------------------------------------------------
f--------------------------------------------------
c--------------------------------12h14h16-12h14h16-
g-----------------------12h14h16-------------------
d--------------12h14h16----------------------------

chorus- gtr 1
d--------------------------------------5-----------
a--------------------------------------5-----------
f------------11----9----7----9----2----------------
c--7~---6~---11----9----7----9----2-------2--4--6~-
g--7~---7~---9-----7----5----7----0----------------
d--5~---4~-----------------------------------------

gtr 2
d--------------------------------------------------------------
a------------17-17~~----(17)----17~--------17------------17-17-
f--14--16-16-------------------------16-16----16-16--14~-------
c--------------------------------------------------------------
g--------------------------------------------------------------
d--------------------------------------------------------------

gtr 2
d---------------------------------5----------------------------
a--15h17p1514h15p1410/1210-8-8---8-7-5----------------------
f-----------------------------------------5-2---2-2-4-4-2--2---
c---------------------------------------------4-----------4--4-
f--------------------------------------------------------------
d--------------------------------------------------------------

gtr 1 stops chorus

gtr 2
d-----------------------------------------------------------------
a----------------5--------------------------5------10----12-12-10-
f--2---2---2-4-4---4-4-4-4-2----2h4---2-4/6---6/11----11----------
c----4---4-------------------4------4-----------------------------
g-----------------------------------------------------------------
d-----------------------------------------------------------------

gtr 2
d----------------------------------------------------------------------------
a----12----10--12--10--17-17~------------------------------------------------
f--11---11---11--11------------0--16-16--16-16--16-16-16p14-16-16--16-14~-16-
c----------------------------------------------------------------------------
g----------------------------------------------------------------------------
d----------------------------------------------------------------------------

gtr 2
d-----------------------------------------------------------------
a--15h17p15---------17-17-17----17-17-17--------------------------
f-----------14~--16----------16-----------------------------------
c-----------------------------------------------------------------
g-----------------------------------------14-14-14-12---14--12h14-
d----------------------------------------------------14---12------

chorus- gtr 1
d--------------------------------------5-----------
a--------------------------------------5-----------
f------------11----9----7----9----2----------------
c--7~---6~---11----9----7----9----2-------2--4--6~-
g--7~---7~---9-----7----5----7----0----------------
d--5~---4~-----------------------------------------

gtr 2
d----------------------------------------------------17-------------------
a--17--17--17-17-------------------------------17-------------------------
f----------------16-16--16-16-16--16-14-14-16-----16----16-16-14-16-16-14-
c-------------------------------------------------------------------------
g-------------------------------------------------------------------------
d-------------------------------------------------------------------------

gtr 2
d--17-17-17-17-17-17-------------------------------------------17----
a----------------------------------14-17--17-17-------14-17-17----17-
f---------------------14~~--14-16---------------14-16----------------
c--------------------------------------------------------------------
g--------------------------------------------------------------------
d--------------------------------------------------------------------

gtr 2                                                    gtr 1 & 2 fade out 
d--------------------------------------------------------------
a--------------------------------------------------------------
f--14----16---14-14-14-14-14-----------------------------------
c-----16---16-----------------16p15p14-------------------------
g--------------------------------------16p15p14-16p15p14-------
d--------------------------------------------------------17-14-

        __
      =/ /
     =/ /
    =/_/            
     |_           
     |_|          
     |_|  any questions or correction  
     |_|   email me, valkeyrie3@hotmail.com 
     |_|
     |_|
     |_|      
  / |_|
 / | |_|  _
   |_| (  
  |     / /
  | [===] | 
 /  [===]/|   
 |   ___/oo  
   |---| o )  
  ________/
Show more