• Song:

    Tonight

  • Artist:

    Motley Crue

  • Album:

    Music To Crash Your Car...

motley crue: tonight

tuning: d,g,c,f,a,d (low to high)  

key:
~ - let ring
v - vibrato
h - hammer on
p - pull off
xhxpx - trill-(continuous hammer on)-(x=note)
b - bend


intro
    E    B/F#   E  E/D E  A  ASUS2  pm-(2nd time)
d-|--------------------------------|---|
a-|---------------------------(0)~-|---|
f-|-7---14-14---7---7-7--------2~--|---|
c-|-7---11-11---7---7-7---7~---2~--|---|
g-|-9---11-11---9---8-9---7~---0~--|0-0|
d-|-----------------------5~-------|---| (4 times)

verse:
       when you smiled at me......

split chords palm muted over E, E/D, C#m, B, A, G#m, F#,A,B, then E5,A5,E5


       you looked to young............
   G#m    pm       C#m      pm(B)   A      pm(B) E      A     E
d-|-------------------------------------------------------------
a-|-------------------------------------------------------------
f-|---------------6-6-6-----------------------------------------
c-|-6-------------6-6-6------------7-7-7---------2-----7-7-7--2-
g-|-6-------------4-4-4--------9---7-7-7-----9---2-----7-7-7--2-
d-|-4--4-4-4-4-4-------------7-7---5-5-5---7-7---0-----5-5-5--0-

         but when you smiled.....
   G#m    pm      C#m       pm(E)      B    pm(C) C#m   pm
d-|-----------------------------------------------------------
a-|-----------------------------------------------------------
f-|---------------6-6-6---------------------------------------
c-|-6-------------6-6-6--------9-----9-9-9--------11----------
g-|-6-------------4-4-4------7-7-----9-9-9-----10-11----------
d-|-4--4-4-4-4-4---------------------7-7-7---8-8--9-9-9-9-9-9-


chorus:
    A     pm       B    pm           E     A      E       pm
d-|---------------------------------------------------------------
a-|---------------------------------------------------------------
f-|---------------------------------------------------------------
c-|-7--------------9-----------------2---7-7-7--2-2-2-------------
g-|-7--------------9-------------9---2---7-7-7--2-2-2-------------
d-|-5-5-5-5-5-5-5--7-7-7-7-7-7-7-7---0---5-5-5--0-0-0-0-0-0-0-0-0-(repeat)


then on 'toniiiiiighiiiiit....' 2 guitars-

  (guitar 1)         (guitar 2)
     B               Bsus4 or B/F#
d-|------------     d------------
a-|------------     a------------
f-|------------     f------------
c-|--9~--------     c--16~-------
g-|--9~--------     g--14~-------
d-|--7~--------     d--14~-------


(intro)(x2)

(verse)

(chorus)

solo:

1st part

 over chords - (E, E/D, C#m, B, A)
                                                                                   (use tremelo bar)
d-|-------------------------------------------------------------------------------------------|----
a-|-------------10-12--14v--12h14p12-10--10h12p10-9--9h10p9-7--7h9p7-5--5h7p5h7p5h7p5--7b-7b--|----
f-|-/9v--h11-11-------------------------------------------------------------------------------6v---
c-|------------------------------------------------------------------------------------------------
g-|------------------------------------------------------------------------------------------------
d-|------------------------------------------------------------------------------------------------


2nd part (fast bit) (I HAVNT FIGURED OUT THE SECOND PART YET - will post when i figure it out)

 over chords - (A, G#m, F#)


3rd part (trill sequence)

 over chords -     (A, B)                            (E)    (A)  (E)

d-|------------------------------------------------------------------
a-|--9h12p9h12p9-----------------------------------------------------
f-|--------------9h11p9h11p9-----------------------------------------
c-|--------------------------9h11p9h11p9-------------------7-7-7--2--
g-|--------------------------------------9h11p9h11p9--7v---7-7-7--2--
d-|--------------------------------------------------------5-5-5--0--


(repeat solo)


(verse) looked to young....

(chorus)

(intro) a number of times.....


outro:

end on E chord like- (theres probably another guitar playing the lower E5 also)-
d-|-----------             d-|-----------
a-|-----------             a-|-----------
f-|---------9-             f-|-----------
c-|-14------9-             c-|---2-------
g-|-14--OR--7-             g-|---2-------
d-|-12--------             d-|---0-------

then play about with tremelo bar...
Show more