• Song:

    Tonight (we Need A Lover)

  • Artist:

    Motley Crue

  • Album:

    Music To Crash Your Car...

tonight (we need a lover)
motley crue

h- hammer on
p- pull off
/- slide up
- slide down
///- light trilling
*- semi harmonic
(#)- ghost note
~- let ring
b- bend full
tr- tremolo the notes

D tuning -DAFCGD

intro- x4
d---------------------------------------
a---------------------------------------
f-------9-------9---9-----9-9-9-9-7-7-8-
c-------9-------9---9-----7-7-7-7-5-7-8-
g-------7-------7---7---------------5-6-
d--0-0-----0-0----0----0----------------

verse
d------------------------------------------------------------------------------------
a-------------------------------------------------------------------------------8----
f--9-----(9)-------9-p-(0)--7-/-/-/---7-p-(0)--7-/-/-/-------9-----(9)----7--7-
c--9-----(9)----0--7-p-(0)--5-/-/-/---5-p-(0)--7-/-/-/---7---9-----(9)----5--7-
g--7-----(7)--------------------------------------5-/-/-/---5---7-----(7)-------5-
d--0-----(0)-------------------------------------------------------0-----(0)---------

                                                                   PM-------------|
d---------------------------------------------------------------------------------------------
a---------------------------------------------------------------------------------------------
f--9-----(9)-------9-p-(0)--7-/-/-/---7-p-(0)--7-/-/-/-------9-9-9-9-9-9-9-9----9-----9-
c--9-----(9)----0--7-p-(0)--5-/-/-/---5-p-(0)--7-/-/-/---7---9-9-9-9-9-9-9-9----9-----9-
g--7-----(7)--------------------------------------5-/-/-/---5---7-7-7-7-7-7-7-7----7-----7-
d--0-----(0)-------------------------------------------------------0-0-0-0-0-0-0-0--0---0-0---

pre chorus
d-----------------------------------
a-----------------------------------
f--5----------------7---4-5-4h5p4p0-
c--5---4-5-4h5p4p0--7---------------
g--3----------------5---------------
d-----------------------------------

chorus- x4
d---------------------------------------
a---------------------------------------
f-------9-------9---9-----9-9-9-9-7-7-8-
c-------9-------9---9-----7-7-7-7-5-7-8-
g-------7-------7---7---------------5-6-
d--0-0-----0-0----0----0----------------

x1
d-----------------------------------
a-----------------------------------
f--5----------------7---4-5-4h5p4p0-
c--5---4-5-4h5p4p0--7---------------
g--3----------------5---------------
d-----------------------------------

verse
d------------------------------------------------------------------------------------
a-------------------------------------------------------------------------------8----
f--9-----(9)-------9-p-(0)--7-/-/-/---7-p-(0)--7-/-/-/-------9-----(9)----7--7-
c--9-----(9)----0--7-p-(0)--5-/-/-/---5-p-(0)--7-/-/-/---7---9-----(9)----5--7-
g--7-----(7)--------------------------------------5-/-/-/---5---7-----(7)-------5-
d--0-----(0)-------------------------------------------------------0-----(0)---------

                                                                   PM-------------|
d---------------------------------------------------------------------------------------------
a---------------------------------------------------------------------------------------------
f--9-----(9)-------9-p-(0)--7-/-/-/---7-p-(0)--7-/-/-/-------9-9-9-9-9-9-9-9----9-----9-
c--9-----(9)----0--7-p-(0)--5-/-/-/---5-p-(0)--7-/-/-/---7---9-9-9-9-9-9-9-9----9-----9-
g--7-----(7)--------------------------------------5-/-/-/---5---7-7-7-7-7-7-7-7----7-----7-
d--0-----(0)-------------------------------------------------------0-0-0-0-0-0-0-0--0---0-0---

pre chorus
d-----------------------------------
a-----------------------------------
f--5----------------7---4-5-4h5p4p0-
c--5---4-5-4h5p4p0--7---------------
g--3----------------5---------------
d-----------------------------------

chorus- x4
d---------------------------------------
a---------------------------------------
f-------9-------9---9-----9-9-9-9-7-7-8-
c-------9-------9---9-----7-7-7-7-5-7-8-
g-------7-------7---7---------------5-6-
d--0-0-----0-0----0----0----------------

x1
d-----------------------------------
a-----------------------------------
f--5----------------7---4-5-4h5p4p0-
c--5---4-5-4h5p4p0--7---------------
g--3----------------5---------------
d-----------------------------------


interlude-

gtr 1- play this once before solo begins, then play throughout
d-----------------------------------------------------------
a-----------------------------------------------------------
f--9------------5------------7------------9-------------
c--9------------5------------7------------9-------------
g--7------------3------------5------------7-------------
d-----0-0-0-0-0-----0-0-0-0-0-----0-0-0-0-0-----0-0-0-0-0-0-

gtr 3- play this once before solo begins, keyboard arranged for guitar- Em, C, D, Em

gtr 2
d--22b-22--22b--22b--(22)22b---19-20-22-19h20p19----19---------------------------------
a------------------------------------------------22----22b-(22)-----------------------
f--------------------------------------------------------------------------------------
c--------------------------------------------------------------------------------------
g-----------------------------------------------------------------12b--(12-12-12-12)-*-
d--------------------------------------------------------------------------------------

d-----------------------------------------------------------------------------------------------------------------
a-----------------------------------------------------------------------------------------------------------------
f-------------------9~~--------9-11-12---11-12--12h12p11~~-----------------------------------14b(14)p12-----------
c--0tr(2)~---2---9----------9-----------------------------------------------------12-12-14-14-----------14~~--14-
g----------------------------------------------------------------------12-12-14-14--------------------------------
d-----------------------------------------------------------12-12-15-15-------------------------------------------

gtr 1
d-----------------------------------
a-----------------------------------
f--5----------------7---4-5-4h5p4p0-
c--5---4-5-4h5p4p0--7---------------
g--3----------------5---------------
d-----------------------------------

bridge-

gtr 3 still plays- Em, D/A, C/G, B/F#

gtr 1
d-------------------------------------------------------------------------------
a-------------------------------------------------------------------------------
f-------------------------------------------------------------------------------
c------------------------------------------------------7---7/9---9/10---109~~~-
g--7-----(7)---7-9-7----9/10--9-7--7h9~~~~--------9/10--------------------------
d-------------------------------------------------------------------------------

out chorus- x4                                 after 4th time only
d---------------------------------------|-------------------------------
a---------------------------------------|-------------------------------
f-------9-------9---9-----9-9-9-9-7-7-8-|--9----9-----(9)----(9)----(9)-
c-------9-------9---9-----7-7-7-7-5-7-8-|--9----9-----(9)----(9)----(9)-
g-------7-------7---7---------------5-6-|--7----7-----(7)----(7)----(7)-
d--0-0-----0-0----0----0----------------|-------0-----(0)----(0)----(0)-

outro- repeat, speed up and fade out
d---------------------------------------
a---------------------------------------
f-------9-------9---9-----9-9-9-9-7-7-8-
c-------9-------9---9-----7-7-7-7-5-7-8-
g-------7-------7---7---------------5-6-
d--0-0-----0-0----0----0----------------

questions comments, email me:
valkeyrie3@hotmail.com
Show more