• Song:

    Wild Side

  • Artist:

    Motley Crue

  • Album:

    Music To Crash Your Car...

Title: Wild side
Artist: Motley crue
Album: Girls girls girls
Tabber: Steph
Email: cyberbassist@hotmail.com

Standard tuning

Intro
     G     C     2x
G|------r----------|
D|------e----------|
A|------s---3-3-3--|
E|---3--t----------|

Chorus
   
   G                          C                                      2X
G|----------------------------------------------------------------------|
D|*---------------------------------------------------------------------|
A|*----------------------------3-3-3--33-31-----------------------------|
E|-3333333333333333333333333--------------------------------------------|

   G                                                                   
G|----------------------------------------------------------------------|
D|----------------------------------------------------------------------|
A|----------------------------------------------------------------------|
E|-33333333333333333333333333333333-------------------------------------|

Verse

   G                                 F                 G               2X
G|----------------------------------------------------------------------|
D|----------------------------------------------------------------------|
A|----------------------------------------------------------------------|
E|-33333333333333333333333333333333--1111111111111111--3333333333333333-|

chorus
verse
chorus

   1:24
G|----------------------------------------------------------------------|
D|----------------------------------------------------------------------|
A|--3-3-3--1~-----1h3---------------------------------------------------|
E|----------------------------------------------------------------------|


  1:31                                 3X
G|---------------------------------------|------------------------------|
D|*-------------------------------------*|------------------------------|
A|*------3-1-----1---------1--------1-3-*|--3--3-1--1-------------------|
E|---3-3-----3-3---3---3-3---3--3-3------|------------3-----------------|


Punch with drum 3:06

G|----------------------------------------------------------------------|
D|----------------------------------------------------------------------|
A|------------------------------3-3-3~--3-3-3~-1------1h3---------------|
E|-3-3-3-3-3-3-3-3-3-3-3-3-3-3------------------------------------------|


All the pattern are there, Place it in order and...enjoy!
For comments, question or suggestion, please email me
Show more