• Song:

    You_e All I Need

  • Artist:

    Motley Crue

you're all i need
motley crue

D tuning- DGCFAD

PM- palm mute
x- palm mute
h- hammer on
p- pull off
b- bend
~- let ring
sh- semi harmonic
- slide up
/- slide down

i  guess tommy plays piano throughout the whole song, 
but i only tabbed guitar parts so too bad

intro
d----------------------------------------------------------------
g----------------------------------------------------------------
c----------------------------------------------------------------
f--8-------8-----------8-------6-------6-----------6---6-6-------
a--8--x-x--8---x-x-x---8--x-x--6--x-x--6--x-x-x-x--6---6-6--x-x--
d--6-------6-----------6-------4-------4-----------4---4-4-------

d----------------------------------------------------------------
g----------------------------------------------------------------
c----------------------------------------------------------------
f--8-------8-----------8-------6-------6-----------6---6-6-------
a--8--x-x--8---x-x-x---8--x-x--6--x-x--6--x-x-x-x--6---6-6--x-x--
d--6-------6-----------6-------4-------4-----------4---4-4-------

d---------------------------------------------------
g---------------------------------------------------
c--12-------12----10-------10-------10----8-------8-
f--12--x-x--12----10--x-x--10--x-x--10----8--x-x--8-
a--10-------10----8---------8-------8-----6-------6-
d---------------------------------------------------

verse
                   PM--------------|
d--------------------------------------------------------------
g--------------------------------------------------------------
c--13----------------------------------------------------------
f--13--------------------------6----------------6---6----------
a--11--------------------6--8-----8-------------4---3---8---6--
d-------------------6--8--------------------------------6---4--

              PM------------|
d-----------------------------------------------------------------------------
g-----------------------------------------------------------------------------
c-----------------------------------------------------------------------------
f--6--------------------6-------------------6----------------------6--6-------
a-----------------6--8-----8-----------6----4----------------------4--3--8--6-
d------------6--8----------------------4-----------------------4---------6--4-

chorus
d---------------------------------------------
g---------------------------------------------
c---------------------------------------------
f--6----6----8----8----10---10--------10----8-
a--4----4----6----6----8----8----------8----6-
d---------------------------------------------

gtr 2
d-----------------
g-----------------
c-----------------
f--6--5-----------
a--------6--6/8~~-
d-----------------

d---------------------------------------------
g---------------------------------------------
c---------------------------------------------
f--6----6----8----8----10---10--------10----8-
a--4----4----6----6----8----8----------8----6-
d---------------------------------------------

gtr 2
d-------------
g-------------
c-------------
f--6--5-------
a--------6--8-
d-------------

d-----------------------------------------------
g-----------------------------------------------
c-----------------------------------------------
f--6----6----8----8----10---10----10----10----8-
a--4----4----6----6----8----8-----8-----8-----6-
d-----------------------------------------------

gtr 2
d----------------------------------------------
g----------------------------------------------
c----------------------------------------------
f--6--5----------------6--5-------------6----8-
a--------6--6/8~~------------6/8---6----4----6-
d----------------------------------------------

verse
   PM------------|
d-------------------------------------------------
g-------------------------------------------------
c-------------------------------------------------
f--------------6--------------------------------6-
a--------6--8----8------4---------6-------6-----4-
d--6--8-----------------------------------4-------

gtr 2
d---------------------------------------------
g---------------------------------------------
c---------------------------------------------
f--6---6-------------6-------------------6----
a--4---3---8---6-------------------6--8-----8-
d----------6---4--------------6--8------------

d-----------------------------------------------------
g-----------------------------------------------------
c-----------------------------------------------------
f------6----6---6------------10---10---8---6-------8-
a--6---4----4---3----8---6----8----8---6---4-------6-
d--4-----------------6---4----------------------------

gtr 2          sh
d--------------------------------
g--------------9b--------11b--~~-
c--------------------------------
f--6--5--------------------------
a--------6/8---------------------
d--------------------------------

solo                      PM--------------------------|
d--6---8--10--6----8--10--6-8-10-6-8-10-8-10-11-8-10-11-10-11-13-10-
g-------------------------------------------------------------------
c-------------------------------------------------------------------
f-------------------------------------------------------------------
a-------------------------------------------------------------------
d-------------------------------------------------------------------

d--11-13-11-13-15-11-13-15-13-6----8--10--6----8--10-
g-----------------------------------------------------
c-----------------------------------------------------
f-----------------------------------------------------
a-----------------------------------------------------
d-----------------------------------------------------

  with delay-----------------------------------------|
d--6-8-10-6-8-10-4-6-8-4-6-8-6-8-10-6--6-8-6-8-10-8-8-10-6-
g----------------------------------------------------------
c----------------------------------------------------------
f----------------------------------------------------------
a----------------------------------------------------------
d----------------------------------------------------------

                         2 gtrs                        2 gtrs
d----------------------------------------------------------
g------------------------12b---------------------------10b-
c---------------------9--12b------------------------7--10b-
f----------9--10--12----------------------7--8--10---------
a--10--12--------------------------8--10-------------------
d----------------------------------------------------------

d-------------------------------------------------------
g-------------------------------------------------------
c-----------------5--8b~~--------8b--8b--8b--8b--8b--8b-
f--------5--6--8----------------------------------------
a--6--8-------------------------------------------------
d-------------------------------------------------------

outro chorus
d--------------------------------13--13--13--13--13-----
g--------------------------------16b-16b-16b-16b-16b~~~-
c--8b~~~~~------13p12-----------------------------------
f----------------------13-13h15-------------------------
a-------------------------------------------------------
d-------------------------------------------------------

   PM-------|
d----------------------------------
g--------------------9-------9b~~~-
c-----------------------10---------
f--------------8h10----------------
a--------6--8----------------------
d--6--8----------------------------

d-----------------------13-----13------13------13---------13---13--13---13--13--
g------------------16b-----16b----16b-----16b-----16b~~---16b--16b-16b--16b-16b-
c--15b--15p14-------------------------------------------------------------------
f--------------15---------------------------------------------------------------
a-------------------------------------------------------------------------------
d-------------------------------------------------------------------------------

                       full bend--------------------------------------------------|
d--13---13---13---13---13--13-13-13-13-13-13-13-13-13-13-13-13-13-13-13-13-13-13-13-
g--16b--16b--16b--16b--16--16-16-16-16-16-16-16-16-16-16-16-16-16-16-16-16-16-16-16-
c-----------------------------------------------------------------------------------
f-----------------------------------------------------------------------------------
a-----------------------------------------------------------------------------------
d-----------------------------------------------------------------------------------

fade out
d----------------------------------------------------------------------
g--16b-16b-16b-16b-16b-16b-16b--16-16--16b-16b-16b-16b-16b-16b-16b-16b-
c----------------------------------------------------------------------
f----------------------------------------------------------------------
a----------------------------------------------------------------------
d----------------------------------------------------------------------

        __
      =/ /
     =/ /
    =/_/            
     |_           
     |_|          
     |_|  any questions or correction  
     |_|   email me, valkeyrie3@hotmail.com -Crue
     |_|
     |_|
     |_|      
  / |_|
 / | |_|  _
   |_| (  
  |     / /
  | [===] | 
 /  [===]/|   
 |   ___/oo             
   |---| o ) 
  ________/
Show more