Band:-MotorAce
Song:-Keeping Secrets

INTRO

G1:
Strummig these chords

E---4-----------------1-------------------3------------------1---
A---6-----------------3-------------------3------------------1---
D---6-----------------3-------------------5------------------3---  
G----------------------------------------------------------------
B----------------------------------------------------------------
E----------------------------------------------------------------

G2:
Play while Guitar 1 plays Intro
E-----------------------------------------------------------------
A-----------------------------------------------------------------
D-----------------------------------------------------------------
G-----------------------------------------------------------------
B-----------8---6------------8---6----------8---6--------------B13
E--8--8--6-----------8--8--6---------8--8--6--------8--8--6-------

VERSE1:

GUITAR 1 AND 2 PLAY
    Took all week.... For the feeling...  Dry your eyes..... staring at the sun
E---4-----------------1-------------------3------------------1---
A---6-----------------3-------------------3------------------1---
D---6-----------------3-------------------5------------------3---  
G----------------------------------------------------------------
B----------------------------------------------------------------
E----------------------------------------------------------------

VERSE 2:

    Want to call...   I've got nothing..  Want it all got... Line and a ...
E---4-----------------1-------------------3------------------1---
A---6-----------------3-------------------3------------------1---
D---6-----------------3-------------------5------------------3---  
G----------------------------------------------------------------
B----------------------------------------------------------------
E----------------------------------------------------------------

PRE CHORUS

      Keeping secrets there's only one I need to find
E-----4------------------------------------------6-------------------
A-----6------------------------------------------8-------------------
D-----6------------------------------------------8-------------------
G-----------------------------------------------------------------
B-----------------------------------------------------------------
E-----------------------------------------------------------------

CHORUS

   Shaking myself...Heart of the........Morning
E--6----------------1-------------------6-------------------------
A--6----------------3-------------------8-------------------------
D--8----------------3-------------------8-------------------------
G-----------------------------------------------------------------
B-----------------------------------------------------------------
E-----------------------------------------------------------------

 Saving it all.....  For the rest  of the night
E------------3----------------4------------6-----------------------
A------------5----------------6------------8-----------------------
D------------5----------------6------------8-----------------------
G---------------------------------------------------------------
B---------------------------------------------------------------
E---------------------------------------------------------------


   Losing myself from the drug of the city lights
E-----------3---------------1-------------------------------------
A-----------3---------------1-------------------------------------
D-----------5---------------3-------------------------------------
G---------------------------------------------------------------
B---------------------------------------------------------------
E---------------------------------------------------------------


   You're keeping secrets there's only one I need to find
E------------4-----------------------------------------6----------
A------------6-----------------------------------------8----------
D------------6-----------------------------------------8----------
G---------------------------------------------------------------
B---------------------------------------------------------------
E---------------------------------------------------------------

The rest of the song just repeats itself over and over until the end

Have fun

This tab  was done by ear so if some parts are wrong, well too bad.

Any questions email fichera11@hotmail.com

Tabbed by Jason Fichera
Show more