• Song:

    Ace Of Spades

  • Artist:

    Motorhead

  • Album:

    The Best of Motorhead

By Robthebank (robthebank89@hotmail.com)

Motorhead - Ace of Spades

~ = vibrato
/ = slide
x = mute
b = bend
p = pull-off
h = hammer-on

Intro
e|---------------------------------|---------------------------------|
B|---------------------------------|---------------------------------|
G|---------------------------------|---------------------------------|
D|---------------------------------|---------------------------------|
A|--10-10-10--10-10-10-10-10-10-8--|--10-10-10--10-10-10-10-10-10-8--|
E|--8--8--8---8--8--8--8--8--8--6--|--8--8--8---8--8--8--8--8--8--6--|

e|---------------------------------|----------------------------|
B|---------------------------------|----------------------------|
G|---------------------------------|----------------------------|
D|---------------------------------|----------------------------|
A|--10-10-10--10-10-10-10-10-10-8--|--10-10-10--10-10-10-11/18--|
E|--8--8--8---8--8--8--8--8--8--6--|--8--8--8---8--8--8---9/16--|



Pre-chorus
e|----------------------------------|--------------------------------|
B|----------------------------------|--------------------------------|
G|-----------------------9-9-8-8-7--|----------------------9-9-8-8-7-|
D|--10-10--10-10-10-10---9-9-8-8-7--|--10-10--10-10-10-10--9-9-8-8-7-|
A|--10-10--10-10-10-10--------------|--10-10--10-10-10-10------------|
E|--8--8---8--8--8--8---------------|--8--8---8--8--8--8-------------|

e|---------------------------------|---------------------------------|
B|---------------------------------|---------------------------------|
G|----------------------9-9-8-8-7--|----------------------9-9-8-8-7--|
D|--10-10--10-10-10-10--9-9-8-8-7--|--10-10--10-10-10-10--9-9-8-8-7--|
A|--10-10--10-10-10-10-------------|--10-10--10-10-10-10-------------|
E|--8--8---8--8--8--8--------------|--8--8---8--8--8--8--------------|


Chorus
e|---------------------------------|----------------------------------------------------|
B|---------------------------------|--10b12-8-10-8--10b12-8----10b12-8-10-8--10b12-8----|
G|---------------------------------|------------------------9------------------------9--|
D|--10-------10-------10-------10--|----------------------------------------------------|
A|--10-------10-------10-------10--|----------------------------------------------------|
E|--8--------8--------8--------8---|----------------------------------------------------|

e|--------------|----------------------------|--------------|
B|--------------|---10b12-8-10-8--10b12-8----|--------------|
G|--------------|-------------------------9--|--------------|
D|--10-------8--|----------------------------|--10-------8--|
A|--10-------8--|----------------------------|--10-------8--|
E|--8--------6--|----------------------------|--8--------6--|



Pre-chorus



Chorus



Bit after second chorus
e|---------------------------------|---------------------------------|
B|---------------------------------|---------------------------------|
G|--5--5--x--x--x--x--9-9--8-8--7--|--5--5--x--x--x--x--9-9--8-8--7--|
D|--5--5--x--x--x--x--9-9--8-8--7--|--5--5--x--x--x--x--9-9--8-8--7--|
A|--3--3--x--x--x--x--7-7--6-6--5--|--3--3--x--x--x--x--7-7--6-6--5--|
E|---------------------------------|---------------------------------|

e|---------------------------------|---------------------------------|
B|---------------------------------|---------------------------------|
G|--5--5--x--x--x--x--9-9--8-8--7--|--5--5--x--x--x--x--9-9--8-8--7--|
D|--5--5--x--x--x--x--9-9--8-8--7--|--5--5--x--x--x--x--9-9--8-8--7--|
A|--3--3--x--x--x--x--7-7--6-6--5--|--3--3--x--x--x--x--7-7--6-6--5--|
E|---------------------------------|---------------------------------|
		   (silence)
e|---------------|---------------------|--------------------|
B|---------------|---------------------|--------------------|
G|---------------|---------------------|--3333444455556/11--|
D|--10-----8/10--|---------------------|--3333444455556/11--|
A|--10-----8/10--|---------------------|--1111222233334/9---|
E|--8------6/8---|---------------------|--------------------|



Bit before solo
e|------------------------------------------------------------------------------------------|
B|------------------------------------------------------------------------------------------|
G|--5-5-5-5-5--5-5-5-5-5--5-5-5-5-5--7-7-5-5-5--2-2-2-2-2--2-2-2-2-2--2-2-2-2-2--2-2-2-2-2--|
D|--5-5-5-5-5--5-5-5-5-5--5-5-5-5-5--7-7-5-5-5--2-2-2-2-2--2-2-2-2-2--2-2-2-2-2--2-2-2-2-2--|
A|--3-3-3-3-3--3-3-3-3-3--3-3-3-3-3--5-5-3-3-3--0-0-0-0-0--0-0-0-0-0--0-0-0-0-0--0-0-0-0-0--|
E|------------------------------------------------------------------------------------------|



Solo
e|------------------------------------------------------------------------------------------------
B|------------------------------------------------------------------------------------------------
G|------------------------------------------------------------------------------------------------
D|--------------------------------9-11p9----9h11~----11p9---11p9---11p9---11p9----11b12--9--7--4--
A|--9/11--11--11~---11p9----9--11--------11--------------11-----11-----11-----11------------------
E|-----------------------11-----------------------------------------------------------------------

e|----------------------------------------------------------------------------------------------------
B|---------------------------------14-------------14-14-14-14--14-14-14-14--14-14-14-14--15-15-15-15--
G|-------------------------13b15b15--13p11--11----14-14-14-14--14-14-14-14--14-14-14-14--15-15-15-15--
D|-------9-11p9---9h11/13-----------------13----------------------------------------------------------
A|--9/11-------11-------------------------------------------------------------------------------------
E|----------------------------------------------------------------------------------------------------

e|------------------------------------------------------------------------------------------------------
B|--16-16-16-16--17-17-17-17----19~-19~--19~--19p17--17----15--17--19b20-15------------18p16---16p14----
G|--16-16-16-16--17-17-17-17-----------------------18-----------------------18--16~---------17------15--
D|------------------------------------------------------------------------------------------------------
A|------------------------------------------------------------------------------------------------------
E|------------------------------------------------------------------------------------------------------

(I'm not sure about this last little bit below. Actually, I am, I'm sure it's wrong. It sounds less wrong if you
 chuck a fiddly bit or two in there.)
e|----------------------------------|
B|--16b17-14----14b15---------------|
G|-----------15-------16-14---------|
D|--------------------------16-14~--|
A|----------------------------------|
E|----------------------------------|


Pre-chorus


Chorus


Last bit
e|----------------------------------------------|--------------------|
B|--15b17b17~--15b17b17~--15b17b17~--15b17b17~--|--------------------|
G|----------------------------------------------|--------------------|
D|----------------------------------------------|--10-8/10--10-8/10--|
A|----------------------------------------------|--10-8/10--10-8/10--|
E|----------------------------------------------|--8--6/8---8--6/8---|

And the crowd goes 'Yeah!'
Show more