• Song:

    Ace Of Spades

  • Artist:

    Motorhead

  • Album:

    The Best of Motorhead

Artist: Motorhead
Title: Ace of Spades

Tuning: Standard (E A D G B E)



Intro/Chorus
E|-----------------------------||
B|o---------------------------o||
G|-----------------------------||
D|--------------9-x-8-(8)-8-7--||
A|o-------------7-x-7-(7)-7-7-o||
E|--0-0-0-0-0-0----------------||

Verse Riff 1
E|-------------------------------------------------------||
B|-------------------------------------------------------||
G|-------------------------------------------------------||
D|-1111111111111111111111111111111111111111111111--------||
A|-1111111111111111111111111111111111111111111111--------||
E|-9-9-9-9-9-9-9-9-9-9-9-9-9-9-9-9-9-9-9-9-9-9-9---------||

Verse Riff 2
E|------------------------------------------------||
B|------------------------------------------------||
G|------------------------------------------------||
D|-1111111111111111-9-9-9-9-9-9-9-9---------------||
A|-1111111111111111-9-9-9-9-9-9-9-9---------------||
E|-9-9-9-9-9-9-9-9--7-7-7-7-7-7-7-7---------------||

Bridge
E|----------------------------------------------------------------||
B|----------------------------------------------------------------||
G|----------------------------------------------------------------||
D|-8--86---------88888888-6666-8-6-4------------------------------||
A|-6--64---------66666666-4444-6-4-2-88888888---------------------||
E|-----------------------------------66666666---------------------||

Solo
E|-----------------------|--------------------|---------------------------|
B|-----------------------|--------------------|---------------------------|
G|-----------------------|--------------------|---------------------------|
D|-----------------------|-----5-7p5---5h7----|-7p5---7p5---7p5---7p5-----|
A|-0h3-5s7s5--3h5p3---3--|-5s7-------7--------|-----7-----7-----7-----7---|
E|------------------5----|--------------------|---------------------------|

E|-----------------------------|
B|-----------------------------|
G|-----------------------------|
D|-7b9-(7)-7-(7)-5-(5)-------5-|
A|---------------------7-5h7---|
E|-----------------------------|

E|--------------------------------|-------------------------|
B|--------------------------------|-10-10-------------------|
G|-------------------7-9b11==(9)--|--9r(9)-7h9p7---7--(7)--|
D|-----7-9p7---7-8s9--------------|--------------9----------|
A|-7s9-------9--------------------|-------------------------|
E|--------------------------------|-------------------------|

E|---------------------------------------------------|
B|-/10-10-10-10-10-10-10-10-/10-10-10-10-10-10-10-10-|
G|-/11-11-11-11-11-11-11-11-/11-11-11-11-11-11-11-11-|
D|---------------------------------------------------|
A|---------------------------------------------------|
E|---------------------------------------------------|

E|----------------------------------------------|
B|-10-10-10-10-11-11-11-11-12-12-13-13-14-xSxSx-|
G|-11-11-11-11-12-12-12-12-13-13-14-14-15-xSxSx-|
D|----------------------------------------------|
A|----------------------------------------------|
E|----------------------------------------------|

E|---10b12==(10)r(10)--8h10p8----8--|----8-10b12==(10)r(10)p8-------|
B|----------------------------10----|-10----------------------10----|
G|----------------------------------|-------------------------------|
D|----------------------------------|-------------------------------|
A|----------------------------------|-------------------------------|
E|----------------------------------|-------------------------------|

E|-10p8------------------------------------|
B|------10-10p8---8-10b12==(10)r(10)p8---8-|
G|--------------9----------------------9---|
D|-----------------------------------------|
A|-----------------------------------------|
E|-----------------------------------------|

E|---------------------|
B|-(8)-----------------|
G|-----9-7-----------5-|
D|----------10-7-5h7---|
A|---------------------|
E|---------------------|

Outro
E|----------------||
B|----------------||
G|----------------||
D|-868/-3-868-----||
A|-646/-1-646-----||
E|----------------||
Show more