• Song:

    Ace Of Spades

  • Artist:

    Motorhead

  • Album:

    The Best of Motorhead

This is how I play it and I think its sounds right.

Bass Intro: (converted for guitar) x2
E |-----------------------------------
B |-----------------------------------
G |-----------------------------------
D |-----------------------------------
A |-----------------------------------
E |-2-22-2222-2-2-0--2-22-2222-2-2-0--

Guitar Intro: x2
E |-----------------------------------
B |-----------------------------------
G |-----------------------------------
D |--------9---8--7--------9---8---7--
A |---7---7---7--7----7---7---7---7---
E |-0---0-----------0---0-------------

Verse:
E |---------
B |---------
G |---5~~~--
D |---5~~~--
A |---3~~~--
E |-0-------

First Guitar Break:
E |----------------------------------------
B |-14b15-12-14-12-----14b15-12-14-12------
G |-14b15-12-14-12-----14b15-12-14-12------
D |-----------------------------------14~--
A |----------------------------------------
E |----------------------------------------

Thats all im tabbing out for now.

E-mail me for corrections, complaints, or praise.

djtj122@comcast.net
Show more