• Song:

    Ace Of Spades

  • Artist:

    Motorhead

  • Album:

    The Best of Motorhead

Motorhead
Ace of Spades 
Bass (with a tblspoon of distortion)

 Intro & Main Part (Verse)		 x3   Last time
G|-----------------------------------|------------|
D|--1--1-1--1-1-1--1-1-1-------------|--1/--------|
A|-----------------------4-----------|------------|
E|-----------------------------------|------------|


 Pre-Chorus
G|---------------------------------------------|
D|-4-4-4-4-4-4-4-4-4-4-4-4-4-4-4-4-4-4-4-4-4-4-|
A|---------------------------------------------|
E|---------------------------------------------|
   (If you like to gamble..)


 Chorus
G|----------------------------------------------------|
D|--4-4-4-4--4-4-4-4-4-4-4-4--2-2-2-2-2-2-2-2-2-2-2-2-|
A|----------------------------------------------------|
E|----------------------------------------------------|

  Bridge			Outro
G|---------------------|----------------------|
D|---------------------|----------------------|
A|---------------------|----------------------|
E|--9-11---------------|---11-9-11---11-9-11--|
 Gamblin is for fools..
Show more