• Song:

    America

  • Artist:

    Motorhead

  • Album:

    Iron Fist

Tuned down a half step

Riff 1A 6x
Gb-------------------------------------------2----
Db-0h2--2-2--5p2----5p2p0---0h2--2-2--5p2----0----

Riff 1B once
Gtr. 1
Db-0h2--2-2--5p2---------------------0h2--2-2--5p2--------------------
Ab------------------0h2--2-2--5p2---------------------0h2--2-2--5p2---
        4x                4x               4x               twice

Gtr. 2 strums these chords - B5   Bb5   B5   Bb5   G#5

Riff 1A 4x
Riff 1B once
Riff 1A 4x

Riff 2 twice
Db-2-2-2-2-2------------------2-2-2-2-2---------------
Ab-0-0-0-0-0---2--3-3-3-3-3---0-0-0-0-0---5-5-5-5-5---
Eb-------------0--1-1-1-1-1---------------3-3-3-3-3---

Riff 3 4x then strum C#5 chord
Db-3-3-3-3-3-3---5-5-5-5-5-5---
Ab-1-1-1-1-1-1---3-3-3-3-3-3---

Riff 1A 4x
Riff 1B once
Riff 1A 4x

Song ending
Gb-------------------------2-2-2-2-2-2--4-4-4-4-4-4-4-4--------------------
Db-2-2-2-2-2--5-5-5-5-5-5--0-0-0-0-0-0--2-2-2-2-2-2-2-2----0h2--2-2--5p2---
Ab-0-0-0-0-0--3-3-3-3-3-3--------------------------------------------------
Show more