• Song:

    Bad Religion

  • Artist:

    Motorhead

  • Album:

    March or Die

Riff A
e|-----------------------------|
B|-----------------------------|
G|-----------------------------|
D|-------------------------7---|
A|-------------------------5---|
E|000000000000000000-etc-00----|
  ......pm.................

Riff B
e|-------------------------|
B|-------------------------|
G|-------------------------|
D|---------------------5---|
A|-5-7~~57~57~~5-7~~57~-7~~|
E|-------------------------|

Riff C
e|-------------------------|
B|-------------------------|
G|-------------------------|
D|-12----------12----------|
A|-10----------10----------|
E|-------------------------|

Riff D
e|-------------------------|
B|-------------------------|
G|-------------------------|
D|-------------------------|
A|-444-444--2--444-444--2--|
E|-222-222-00--222-222-00--|

Riff E
e|-------------------------|
B|-------------------------|
G|-------------------------|
D|-7-----------7-----------|
A|-5-----------5-----------|
E|-------------------------|

Riff F
e|-------------------------|
B|-------------------------|
G|-------------------------|
D|-7-----------5-----------|
A|-5-----------3-----------|
E|-------------------------|

Song Structure: Riff A
                Riff B x 6
              /*Riff C 
             /  Riff B       
            /   Riff C       
 Chorus    {    Riff B       
           {    Riff D       
               Riff E       
               Riff D
               *Riff F
                Riff A
                Riff B x 4
                Chorus
                Riff D x 4
                Riff A
                Riff B x 4
                Chorus
                Outro (listen to the CD to get this exactly, but
                       it's basically a cross between Riffs A 
                       and E)


--
Show more