• Song:

    Bad Religion

  • Artist:

    Motorhead

  • Album:

    March or Die

Motorhead - Bad Religion
Bassist: Lemmy
wutteneumann

Inro: 00:00 - 00:22
|--------------------|
|--------------------|
|-6-6-6-6-6-6-6-6-4~-| turn your volume up
|--------------------|

Verse: 00:23 - 00:52
|-----------------|
|-----------------|
|-6-6-6-6-6-6-6-6-|
|-----------------|

Chorus: 00:52 - 00:57
|-------|
|-------|
|-------|
|-7~-7~-|

Verse  00:57 - 01:03
Chorus 01:03 - 01:07
Verse  01:07 - 01:12

Bridge: 01:12 - 01:32
|-------------------------------------------------------|
|---------------------6-4-------------------------------|
|-------------------6------6-4--------------------------|
|-11-111--11-111--4------------6-4--11-111-11-111--4~-2-|

Intro  01:32
Verse  01:42
Chorus 02:04
Verse  02:09
Chorus 02:14
Verse  02:19
Bridge 02:24
The Solo Part is the same like the Bridge !
Verse  03:15
Chorus 03:35
Verse  03:40
Chorus 03:45
Verse  03:50
Bridge 03:55
Verse  04:15
The Outro is the Verse and at the end play the Chorus !
Have Fun !
Show more