• Song:

    Damage Case

  • Artist:

    Motorhead

  • Album:

    The Best of Motorhead

Motorhead - Damage Case

standard tuning (E,A,D,G)

wutteneumann

Intro:
|---------------------------------|
|---4---4---4---6---4---4---4---6-|
|-6---6---6---6---6---6---6---6---|
|---------------------------------|

Verse:
|-----------------|
|-------------4-4-|
|-6-6-6-6-6-6-----|
|-----------------|

Chorus:
|---------------<---|
|-------------6-<---|
|-8-8-8-8-------<-6-|
|---------9-9---<---|

Chorus (continued):
|-------------------------------|
|-----------------------------°-| °at this fill you can also play:
|-6-6-6-6-4-4-4-4------------46-| -4h6-4h6b4-
|-----------------6-4-6-4-46----|

Solo-Part:
|-----------------|
|-1-1-1-1---------|
|---------4-4-----|
|-------------2-2-|

|---------------------1h3b1---|
|-1-1-1-1-0---------3-------3-|- I'm not absolutly sure about
|-----------4-3-2-1-----------|  this
|-----------------------------|

Verse (but changed):
|-----------------|
|-------------6-6-|
|-8-8-8-8-8-8-----|
|-----------------|

Chorus (changed too):
|---------------------|---|
|-------------------8-|---|
|-10-10-10-10---------|-8-|
|-------------11-11---|---|

Chorus, continued (changed):
|-------------------------------|
|-------------------------------|
|-8-8-8-8-6-6-6-6------------68-|
|-----------------8-6-8-6-68----|
                  . . . .
The changed Verse is the Outro !

Please rate it !

wutteneumann
Show more