• Song:

    Eine Kleine Nachtmusik

  • Artist:

    Mozart Wolfgang Amadeus

----------------------------------------------------------------------------
	     Eine Kleine Nachtmusik - Wolfgang Amadeus Mozart
----------------------------------------------------------------------------


Tabbed by: Dave S. 
Email: prime-prine@hotmail.com

Tuning: Standard



E|----------------------|-----------0--3--------|--1---------1---------|
B|--1---------1---------|--1-----1--------------|---------3---------3--|
G|---------0---------0--|-----0-----------------|--0---------0---------|
D|----------------------|-----------------------|----------------------|
A|--3---------3---------|--3-----------3--------|----------------------|
E|----------------------|-----------------------|----------------------|

  
--1----------------|-----------------0--------|--------------------1-----|
-----3--0--3-------|--1-----1-----------3--1--|--1--0--0--------3-----0--|
--0-----------0----|-----0-----0-----0-----0--|-----------0--------------|
-------------------|--------2-----------2-----|-----0-----0-----0-----0--|
-------------------|--3-----------3-----------|--------2-----------2-----|
--------------3----|--------------------------|--3-----------3-----------|

  
-----------------0--------|--------------------1-----|
--3--1--1-----------3--1--|--1--0--0--------3-----0--|
-----0-----0-----0-----0--|-----------0--------------|
--------2-----------2-----|-----0-----0-----0-----0--|
--3-----------3-----------|--------2-----------2-----|
--------------------------|--3-----------3-----------|

         
----------------------0-------|--0--0--3p1-0h1-3--------|
--1--1--1p0---0-1--1----3-1h3-|-------------------------|
-----0------2------0--0---0---|-----0--0----------------|
--------0---0---2-----3-------|------------0---2--------|
--3---------------------------|--3----------------------|
------------------------------|-------------------------|

   
--3--------5--------|--3--1--1--1--1--0--0--0--|--0-----------------------|
--5--------6--------|--------0-----------------|-----3--3--3--1--0-----0--|
--------------------|--0--------------0--0--0--|--------2-----------2-----|
--------------------|-----0-----0--------2-----|--3--3-----3-----0--0--0--|
--------------------|--------2-----3-----------|--------------------2-----|
--------------------|--3-----------------------|--1-----1-----3-----------|

  
------------0--------|--3--------5--------|--3--1--1--1--1--0--0--0--|
--1----3----1--------|--5--------6--------|--------0-----------------|
--0----0----0--------|--------------------|--0--------------0--0--0--|
--2----0-------------|--------------------|-----0-----0--------2-----|
--3----2----3--------|--------------------|--------2-----3-----------|
---------------------|--------------------|--3-----------------------|

     
--0-----------------------|-------------------------|-----------0--3-------|
-----3--3--3--1--0-----0--|--1----------------------|--1-----1----------0--|
--------2-----------2-----|--0-------0-----------0--|-----0-------------0--|
--3--3-----3-----0--0--0--|--2----------2-----2-----|-------------------0--|
--------3-----------2-----|--3-------------3--------|----------------------|
--1-----------3-----------|-------------------------|-------------------3--|

    
-------------------------|-----------0--3---------|------------8---------|
--1----------------------|--1-----1----------0----|--1---------5---------|
--0-------0-----------0--|-----0-------------0----|--0---------5---------|
--2----------2-----2-----|-------------------0----|--2-------------------|
--3-------------3--------|------------------------|--3-------------------|
-------------------------|-------------------3----|----------------------|

                 
-------------------||
--1----------------||
--0----------------||
--2----------------||
--3----------------||
--3----------------||

| /  slide up
| \  slide down
| h  hammer-on
| p  pull-off
| ~  vibrato
| +  harmonic
| x  Mute note
===========================================================================
Show more