My very first tab, learned by ear so go easy if it's wrong.

Enjoy.

Tab made by 6METAL6BASSIST6

Email: Petergriffinav@gmail.com



||-----------|
||-----------|
||5-8-8-8-8-7|
||-----------|

||---------------------------------------------------------|
||----------------------------------6-7--------------------| x3
||5-8-8-8-8-7-------7-8-----5-7---------7-8-7-------7-8----|
||------------0-0-0-----0-0-----0-0-----------0-0-0-----0-0|

||---------|
||---------|
||5-8-8-8-8|
||---------|

||---------------------------------------------------------------|
||---------9-10--------------12-10-9-10-9------------------------| x2
||12----------------12----------------------------------0-3-3-3-3|
||---0-0-0------0-0----0-0-0--------------0-0-0-0-0-0-0----------|

||---------------------------------------------------------|
||---------------------------------------------------------| x2
||--------------------------------------------3-3-3-3-5-3-2|
||0-0-0-0-0-0-1-0-0-0-0-0-0-3-0-0-0-0-0-0-0-0--------------|

||-------------|
||-------------|
||------3------|
||1-1-1---3-3-3|

||---------------------------------------------------------|
||---------------------------------------------------------| x4
||--------------------------------------------3-3-3-3-5-3-2|
||0-0-0-0-0-0-1-0-0-0-0-0-0-3-0-0-0-0-0-0-0-0--------------|

||---------------------------------------------------------|
||---------------------------------------------------------| x2
||--------------------------------------------3-3-3-3-5-3-2|
||0-0-0-0-0-0-1-1-0-0-0-0-0-3-3-1-1-1-1-1-1-1--------------|
Below is a 1 and 0, not 10.
||--------------------------------------------------------------------|
||--------------------------------------------------------------------| 
||---------------------------3-333-3-5-3-2----------------------------| 
||00-0-0-1-10-0-0-3-30-0-0-0----------------00-0-0-1-10-0-0-3-30-0-0-0|

||---------------------------------------------------------|
||----------------------------------6-7--------------------| x2
||5-8-8-8-8-7-------7-8-----5-7---------7-8-7-------7-8----|
||------------0-0-0-----0-0-----0-0-----------0-0-0-----0-0|

||---------|
||---------|
||5-8-8-8-8|
||---------|

||---------------------------------------------------------------|
||---------9-10--------------12-10-9-10-9------------------------| x2
||12----------------12----------------------------------0-3-3-3-3|
||---0-0-0------0-0----0-0-0--------------0-0-0-0-0-0-0----------|

||---------------------------------------------------------|
||---------------------------------------------------------| x2
||--------------------------------------------3-3-3-3-5-3-2|
||0-0-0-0-0-0-1-1-0-0-0-0-0-3-3-1-1-1-1-1-1-1--------------|

||---------------------------------------------------------|
||---------------------------------------------------------| x3
||--------------------------------------------3-3-3-3-5-3-2|
||0-0-0-0-0-0-1-0-0-0-0-0-0-3-0-0-0-0-0-0-0-0--------------|

||-------------------------------------------|
||-------------------------------------------| 
||-------------------------------------------|
||0-0-0-0-0-0-1-0-0-0-0-0-0-3-0-0-0-0-0-0-0-0|

||------------|
||------------|
||5-8-8-8-8-87|
||------------|
Show more