--------------------------------------------------------------------------------------
Bliss - Muse
--------------------------------------------------------------------------------------
Tabbed by: whydopen

Tuning: Standard

Verse
                                              _
G|--------------15---------15------------|     |
D|--10-10-10-10----8,8-8-8----8,8-10-11--|     |
A|---------------------------------------|     |
E|---------------------------------------|     |
                                               |
G|---------------------------------------|     |
D|----------10---------10----------------|     |
A|--8-8-8-8------------------------------|     |
E|-------------8,8-8-8----8,8-10-11------|     |
                                                x 3
G|---------------------------------------|     |
D|----------3---------3------------------|     |
A|---------------------------------------|     |
E|--6-6-6-6---1,1-1-1---1,1-3-4----------|     |
                                               |
G|---------------------------------------|     |
D|--------------------5-----5-6----------|     |
A|--3-3-3-3-6-3,3-3-3---6,6--------------|     |
E|---------------------------------------|    _|

Chorus
                                                          _
G|---------------------------------------------------|     |
D|-10-10-10-10-10-10-10-10-7-7-7-7-7-7-7-7-----------|     |
A|---------------------------------------------------|     |
E|---------------------------------------------------|     |
                                                           |
G|---------------------------------------------------|     |
D|---------------------------------------------------|     |
A|-10-10-10-10-10-10-10-10-10-10-10-10-10-10-10-10---|     |
E|---------------------------------------------------|     |
                                                            x 2
G|---------------------------------------------------|     |
D|---------------------------------------------------|     |
A|-3-3-3-3-3-3-3-3-0-0-0-0-0-0-0-0-------------------|     |
E|---------------------------------------------------|     |
                                                           |
G|---------------------------------------------------|     |
D|---------------------------------------------------|     |
A|---------------------------------------------------|     |
E|-0-0-0-0-0-0-0-0-0-0-0-0-0-0-0-0-------------------|    _|

*Repeat Verse, then Repeat Chorus

Break

G|---------------------------------------------------|
D|---------------------------------------------------|
A|---------------------------------------------------|
E|-1~ ---------1-1-1-1-1-1-1-1-----------------------|

*Play Break after each Chorus


Bridge

G|---------------------------------------------------|
D|-10----------------12------------------------------|
A|---------------------------------------------------|
E|----8-8-8-8-8-8-8-----10-10-10-10-10-10-10---------|

G|---------------------------------------------------|
D|-15----------------------13------------------------|
A|---------------------------------------------------|
E|----13-13-13-13-13-13-13----11-11-11-11-11-11-11---|

G|---------------------------------------------------|
D|--12----------------------10-----------------------|
A|---------------------------------------------------|
E|-----10-10-10-10-10-10-10----8-8-8-8-8-8-8---------|

G|---------------------------------------------------|
D|-10---10---10---10---10---10---10---10-------------|
A|---------------------------------------------------|
E|----8----8----8----8----8----8----8----8-----------|

*Repeat the Chorus

G|---------------------------------------------------|
D|---------------------------------------------------|
A|---------------------------------------------------|
E|-1~ -----------------------------------------------|

*Let last note ring out
Note that, this tab, while as close to accurate as possible, may or may not be
absolutely correct and also that (especially in regards to the ?Bridge? portion of this 
tab) this
is just the way that I prefer to play it. Also, know that another way to play the first 
line of the verse would be to use frets 13 and 15 on the A-string in place of frets 8 and
10 on the D-string, respectively, so as to avoid the rather quick jumps to the 15th fret 
on G, which can be difficult to grow accustomed to. Hope you guys liked this tab; lemme 
know in the comments! P34c3


| /  slide up
| \  slide down
| ~  vibrato
| +  harmonic
| x  Mute note
| ,  Double-staff note
===============================================================================
Show more