-------------------------------------------------------------------------------
                             LIQUID STATE - Muse
-------------------------------------------------------------------------------
Tabbed by: Jono Sayner  
E-mail: 

Tuning: Dadg


Intro (I)

G|--------------------|--------------------|----------------------|---------------------------|
D|--9h10--------------|--9h10--------------|--9h10-----10h13------|--13-12-10-13-12-10-13-12--|
A|-------0-0-0-0-0-0--|-------0-0-0-0-0-0--|-------0-0-------0-0--|---------------------------|
D|--------------------|--------------------|----------------------|---------------------------|

G|--------------------|--------------------|----------------------|---------------------------|
D|--9h10--------------|--9h10--------------|--9h10-----10h13------|--13-12-10-13-12-10-13-12--|
A|-------0-0-0-0-0-0--|-------0-0-0-0-0-0--|-------0-0-------0-0--|---------------------------|
D|--------------------|--------------------|----------------------|---------------------------|



Intro (II)

G|--------------------|---------------------|-----------------------|---------------------------|
D|--9h10--------------|--10h12--------------|--12h13-----13h14------|--13-12-10-13-12-10-13-12--|
A|-------0-0-0-0-0-0--|--------0-0-0-0-0-0--|--------0-0-------0-0--|---------------------------|
D|--------------------|---------------------|-----------------------|---------------------------|

G|--------------------|---------------------|--7h9-------9h10------|---------------------------|
D|--9h10--------------|--10h12--------------|----------------------|--13-12-10-13-12-10-13-12--|
A|-------8-8-8-8-8-8--|--------8-8-8-8-8-8--|--------0-0------0-0--|---------------------------|
D|--------------------|---------------------|----------------------|---------------------------|

G|---------------------|--------------------|----------------------|---------------------------|
D|--10-12-0-0-0-0-0-0--|-12-14-0-0-0-0-0-0--|-14-15-0-0-15-18-0-0--|--13-12-10-13-12-10-13-12--|
A|---------------------|--------------------|----------------------|---------------------------|
D|---------------------|--------------------|----------------------|---------------------------|

G|---------------------|---------------------|---------------------|---------------------|
D|---------------------|---------------------|---------------------|---------------------|
A|--10-12-0-0-0-0-0-0--|--10-12-0-0-0-0-0-0--|--10-12-0-0-0-0-0-0--|--10-12-0-0-0-0-0-0--|
D|---------------------|---------------------|---------------------|---------------------|



Verse (I & II)

G|--------------------|---------------------|-----------------------|---------------------------|
D|--9h10--------------|--10h12--------------|--12h13-----13h14------|--13-12-10-13-12-10-13-12--|
A|-------0-0-0-0-0-0--|--------0-0-0-0-0-0--|--------0-0-------0-0--|---------------------------|
D|--------------------|---------------------|-----------------------|---------------------------|

G|--------------------|---------------------|--7h9-------9h10------|---------------------------|
D|--9h10--------------|--10h12--------------|----------------------|--13-12-10-13-12-10-13-12--|
A|-------8-8-8-8-8-8--|--------8-8-8-8-8-8--|--------0-0------0-0--|---------------------------|
D|--------------------|---------------------|----------------------|---------------------------|

G|---------------------|--------------------|----------------------|---------------------------|
D|--10-12-0-0-0-0-0-0--|-12-14-0-0-0-0-0-0--|-14-15-0-0-15-18-0-0--|--13-12-10-13-12-10-13-12--|
A|---------------------|--------------------|----------------------|---------------------------|
D|---------------------|--------------------|----------------------|---------------------------|

G|---------------------|---------------------|---------------------|---------------------|
D|---------------------|---------------------|---------------------|---------------------|
A|--10-12-0-0-0-0-0-0--|--10-12-0-0-0-0-0-0--|--10-12-0-0-0-0-0-0--|--10-12-0-0-0-0-0-0--|
D|---------------------|---------------------|---------------------|---------------------|


Chorus (I)

G|-------------------|--------------------|----------------------|----------------------|
D|-------------------|--------------------|----------------------|----------------------|
A|--8-5--------------|--8h10--------------|--10h11-----11h12-----|--11-10-8-11-10-8-11--|
D|------0-0-0-0-0-0--|-------0-0-0-0-0-0--|--------0-0-------0-0-|----------------------|

G|-------------------|--------------------|---------------------|-----------------|
D|-------------------|--------------------|--5h7-------7h8------|--6-5-3-6-5-3-6--|
A|--7h8--------------|--8h10--------------|---------------------|-----------------|
D|------8-8-8-8-8-8--|-------8-8-8-8-8-8--|------8-8-------8-8--|-----------------|

G|-------------------|-------------------|------------7------|-----------------|
D|--3h5--------------|--5h7--------------|--7h8-----8--------|--6-5-3-6-5-3-6--|
A|-------------------|-------------------|-------------------|-----------------|
D|------5-5-5-5-5-5--|------5-5-5-5-5-5--|------5-5-----5-5--|-----------------|

G|-------------------|-------------------|-------------------|-------------------|
D|-------------------|-------------------|-------------------|-------------------|
A|--3h5--------------|--3h5--------------|--3h5--------------|--3h5--------------|
D|------0-0-0-0-0-0--|------0-0-0-0-0-0--|------0-0-0-0-0-0--|------0-0-0-0-0-0--|



Verse (III)

G|--------------------|---------------------|-----------------------|---------------------------|
D|--9h10--------------|--10h12--------------|--12h13-----13h14------|--13-12-10-13-12-10-13-12--|
A|-------0-0-0-0-0-0--|--------0-0-0-0-0-0--|--------0-0-------0-0--|---------------------------|
D|--------------------|---------------------|-----------------------|---------------------------|

G|--------------------|---------------------|--7h9-------9h10------|---------------------------|
D|--9h10--------------|--10h12--------------|----------------------|--13-12-10-13-12-10-13-12--|
A|-------8-8-8-8-8-8--|--------8-8-8-8-8-8--|--------0-0------0-0--|---------------------------|
D|--------------------|---------------------|----------------------|---------------------------|

G|---------------------|--------------------|----------------------|---------------------------|
D|--10-12-0-0-0-0-0-0--|-12-14-0-0-0-0-0-0--|-14-15-0-0-15-18-0-0--|--13-12-10-13-12-10-13-12--|
A|---------------------|--------------------|----------------------|---------------------------|
D|---------------------|--------------------|----------------------|---------------------------|

G|---------------------|---------------------|---------------------|---------------------|
D|---------------------|---------------------|---------------------|---------------------|
A|--10-12-0-0-0-0-0-0--|--10-12-0-0-0-0-0-0--|--10-12-0-0-0-0-0-0--|--10-12-0-0-0-0-0-0--|
D|---------------------|---------------------|---------------------|---------------------|



Chorus (II)

G|-------------------|--------------------|----------------------|----------------------|
D|-------------------|--------------------|----------------------|----------------------|
A|--8-5--------------|--8h10--------------|--10h11-----11h12-----|--11-10-8-11-10-8-11--|
D|------0-0-0-0-0-0--|-------0-0-0-0-0-0--|--------0-0-------0-0-|----------------------|

G|-------------------|--------------------|---------------------|-----------------|
D|-------------------|--------------------|--5h7-------7h8------|--6-5-3-6-5-3-6--|
A|--7h8--------------|--8h10--------------|---------------------|-----------------|
D|------8-8-8-8-8-8--|-------8-8-8-8-8-8--|------8-8-------8-8--|-----------------|

G|-------------------|-------------------|------------7------|-----------------|
D|--3h5--------------|--5h7--------------|--7h8-----8--------|--6-5-3-6-5-3-6--|
A|-------------------|-------------------|-------------------|-----------------|
D|------5-5-5-5-5-5--|------5-5-5-5-5-5--|------5-5-----5-5--|-----------------|

G|-------------------|-------------------|-------------------|-------------------|
D|-------------------|-------------------|-------------------|-------------------|
A|--3h5--------------|--3h5--------------|--3h5--------------|--3h5--------------|
D|------0-0-0-0-0-0--|------0-0-0-0-0-0--|------0-0-0-0-0-0--|------0-0-0-0-0-0--|




Outro (I)

G|--------------------|--------------------|----------------------|---------------------------|
D|--9h10--------------|--9h10--------------|--9h10-----10h13------|--13-12-10-13-12-10-13-12--|
A|-------0-0-0-0-0-0--|-------0-0-0-0-0-0--|-------0-0-------0-0--|---------------------------|
D|--------------------|--------------------|----------------------|---------------------------|

G|--------------------|--------------------|----------------------|---------------------------|
D|--9h10--------------|--9h10--------------|--9h10-----10h13------|--13-12-10-13-12-10-13-12--|
A|-------0-0-0-0-0-0--|-------0-0-0-0-0-0--|-------0-0-------0-0--|---------------------------|
D|--------------------|--------------------|----------------------|---------------------------|

G|----------|
D|--9h10----|
A|-------0--|
D|----------|


| /  slide up
| \  slide down
| h  hammer-on
| p  pull-off
| ~  vibrato
| +  harmonic
| x  Mute note
===============================================================================
Show more