Blood Pressure - Mutemath

Tabbed by Vitamin-J
E-mail: jihdidau@gmail.com

Opening Lick                    
e|--------------------------------| 
B|-20b22--20--18---------------18-|
G|---------------19--17-19--19----|
D|--------------------------------|
A|--------------------------------|
E|--------------------------------|

Intro
e|---------------------------|  
B|---------------------------|    
G|---------------------------|   
D|------------5b7--5p3-------|    
A|-5--5/--8-------------5--3-|    
E|---------------------------|x2

e|------------------------------|
B|------------------------------|
G|------------------------------|
D|-------------5b7--5p3---------|
A|-5-5/-8---------------5-3-5-5-|
E|------------------------------|

Verse
e|---------------------------|    
B|---------------------------|    
G|---------------------------|    
D|------------5b7--5p3-------|    
A|-5--5/--8-------------5--3-|   
E|---------------------------|x6

e|------------------------------------------------------------|
B|------------------------------------------------------------|
G|------------------------------------------------------------|
D|-------------------3--------------------------------3-----3-|
A|-5--5p3--5--5p3--5--5p3--5-3-5p3--5--5p3--5--5p3--5--5p3----|
E|-----------------------5--------------------------------5---|

Chorus
e|---------------------|    |----------------------------------| 
B|---------------------|    |----------------------------------|
G|--7-7--5--7-7--5--7--|    |-7-7--5--7-7--5--7-7--5--7-7--5-5-|
D|--7-7--5--7-7--5--7--|    |-7-7--5--7-7--5--7-7--5--7-7--5-5-|
A|--5-5--3--5-5--3--5--|    |-5-5--3--5-5--3--5-5--3--5-5--3-3-|
E|---------------------|x3  |----------------------------------|

Verse 2
e|----------------------------|               
B|----------------------------|               
G|----------------------------|               
D|-------------5b7--5p3-------|  
A|-5--5/--8--------------5--3-|               
E|----------------------------|x4

(4 bar rest)

e|------------------------------------------------|
B|------------------------------------------------|
G|------------------------------------------------|
D|------------5b7--5p3-------------------5b7--5-3-|
A|-5--5/--8--------------5-3--5--5/--8------------|
E|------------------------------------------------|

Verse 2 Lead (Lots of Wah)
e|-------------------------------------------------------------------------------------------------|
B|-------------------------------------------------------------------------------------------------|
G|---------------------x---------------x--------x-x------------------------------------x---x-------|
D|-12-12--12-12--12----x--12-12--12----x-12p10-10-x------------------------------------x---x-10--12|
A|---------------------x---------------x--------x-x-10p8-10p8------x-5--5---x-5--5-----x---x-------|
E|-------------------------------------------------------------------------------------------------|

e|------------------------------------------------------------------------------------------------| 
B|------------------------------------------------------------------------------12b---------------|
G|---12b14---12b14r12----14p12p10--14p12p10--14p12p10--14p12p10-----12p10-------12b-12p10---------|
D|-12-------12---------12--------12--------12--------12-----------12----------12---------12-10h12-|
A|------------------------------------------------------------------------------------------------|
E|------------------------------------------------------------------------------------------------|

e|---------------------------------------------|
B|---------------------------------------------|
G|---------------------------------------------|
D|-x-12--12---x-12-12---x-12--12---12--x-12-12-|
A|---------------------------------------------|
E|---------------------------------------------|
             (--P.M.--)           (----P.M.----)

Fill
e|-------------------------------------12--14--12-----------------------| 
B|-----------------------------15--12--------------15--14--15--14-13-13-|
G|-------------------12---14--------------------------------------------|
D|-12----12----12-------------------------------------------------------|
A|----------------------------------------------------------------------|
E|----------------------------------------------------------------------|

Lick
e|---------------------------------------------------------| 
B|--------18--20b22--20-18--------------18----20b22--20-18-|
G|-19--19------------------19-17-19--19--------------------|
D|---------------------------------------------------------|
A|---------------------------------------------------------|
E|---------------------------------------------------------|

Chorus
e|---------------------|    |---------------------------------| 
B|---------------------|    |---------------------------------|
G|--7-7--5--7-7--5--7--|    |-7-7--5--7-7--5--7-7--5--7-7--5--|
D|--7-7--5--7-7--5--7--|    |-7-7--5--7-7--5--7-7--5--7-7--5--|
A|--5-5--3--5-5--3--5--|    |-5-5--3--5-5--3--5-5--3--5-5--3--|
E|---------------------|x3  |---------------------------------|

Instrumental (Each octave is an 1/8 note triplet)
e|-------------------------------------------------|   |------|
B|-------------------------------------------------|   |------|
G|-14-14-14-14-14-14-14-14-13-13-13-13-12-12-12-12-|   |------|
D|-------------------------------------------------|   |-5----|
A|-12-12-12-12-12-12-12-12-11-11-11-11-10-10-10-10-|   |-5----|
E|-------------------------------------------------|x2 |-3----|

Last Chorus 
e|--------------------------------| 
B|--------------------------------|   
G|-7-7--5--7-7--5--7-7--5--7-7----|   
D|-7-7--5--7-7--5--7-7--5--7-7--7-|   
A|-5-5--3--5-5--3--5-5--3--5-5--7-|   
E|------------------------------5-|x2

e|------------------------------------------------------------------|
B|---------------------------------------------------------8--------|
G|-5-5--3--5-5--3--5-5--3--5-5-----5-5--3--5-5--3--5---5-7--7-5-----|
D|-5-5--3--5-5--3--5-5--3--5-5--5--5-5--3--5-5--3--5--7--------7-5--|
A|-3-3--1--3-3--1--3-3--1--3-3--5--3-3--1--3-3--1--3--------------8-|
E|------------------------------3-----------------------------------|

e|--------------------------------| 
B|--------------------------------|   
G|-7-7--5--7-7--5--7-7--5--7-7----|   
D|-7-7--5--7-7--5--7-7--5--7-7--7-|   
A|-5-5--3--5-5--3--5-5--3--5-5--7-|   
E|------------------------------5-|x2

e|------------------------------------------------------------------|
B|---------------------------------------------------------8--------|
G|-5-5--3--5-5--3--5-5--3--5-5-----5-5--3--5-5--3--5---5-7--7-5-----|
D|-5-5--3--5-5--3--5-5--3--5-5--5--5-5--3--5-5--3--5--7--------7-5--|
A|-3-3--1--3-3--1--3-3--1--3-3--5--3-3--1--3-3--1--3--------------8-|
E|------------------------------3-----------------------------------|

e|--------------------------------|   
B|--------------------------------|     
G|-7-7--5--7-7--5--7-7--5--7-7----|   
D|-7-7--5--7-7--5--7-7--5--7-7--7-|   
A|-5-5--3--5-5--3--5-5--3--5-5--7-|   
E|------------------------------5-|x2
                                                                
                        
                        
                        
                                                    Can't play "Blood Pressure"? Improve your playing via easy step-by-step video lessons!
    

                        
                                                    
                                UG plus: remove banner
                                                                    
                                    
                                    
                                                            
                                                

                    

                
                
                
                    
                        comments
                    
                                            
                            We did not receive enough feedback on this tab! Please rate:
                        
                                        
                        print report bad tab
                    
                                            
                                                            1
                                                            2
                                                            3
                                                            4
                                                            5
                                                    
                                    
                
                                    
                
                    
                         
    
        
        
            
            
                I want to post
            
            
                 comment
            
            
                or
            
            
                 correction
            
            
                [tab]
            
        
        
              
            guest
                
            
                
                    
                        
                        
                            
                                                            
                                    You may want to rate the tab now too:
                                    
                                        
                                            
                                            
                                                select rating
                                            
                                        
                                        
                                                                                            
                                                                                            
                                                                                            
                                                                                            
                                                                                            
                                                                                    
                                    
                                
                                                    
                    
                
                
                    
                                                Please do not post tabs as comments. Select "correction" instead!
                        
                    
                
            
        
        
        
        
        
    
                    
                

            
        
            







    
        var current_rating       = 5;
        var current_rating_count = 1;
        var tabid                = 1419306;
        var ug_serv              = ".ultimate-guitar.com";
        var tabs_user_id         = 4887950;
        var transpose_to         = 0;
        var has_ad_free          = '0';

        
                    var ga_preffix = 'Text tabs ';
            $('.etp_banner .close_etp').click(function(){
                $(this).parents('.etp_banner').css('height', 0).removeClass('open');
                return false;
            });

            $('.etp_banner .buybtn').click(function(){
                $('.etp_banner').css('height', 0).removeClass('open');
            });

                    
            

        
    

            
                


	
	  
		  
			  © 2013 Ultimate-Guitar.com or its affiliates. All rights reserved    
			  About |
			  Help |
			  Site Map |
			  Link To Us |
			  TOS |
			  Privacy Policy |
			  Advertise |
			  Contact
		  
	  
	





var artist_id = 23347;
var name_art  = 'mutemath';

var main_server_name = 'ultimate-guitar.com';




var _gaq = _gaq || [];
  _gaq.push(['_setAccount', 'UA-9160560-1']);
  _gaq.push(['_setDomainName', '.ultimate-guitar.com']);
  _gaq.push(['_trackPageview']);

(function() {
    var ga = document.createElement('script'); ga.type = 'text/javascript'; ga.async = true;
    ga.src = ('https:' == document.location.protocol ? 'https://ssl' : 'http://www') + '.google-analytics.com/ga.js';
    var s = document.getElementsByTagName('script')[0]; s.parentNode.insertBefore(ga, s);
  })();




    document.write(unescape("%3Cscript src='" + (document.location.protocol == "https:" ?
"https://sb" : "http://b") + ".scorecardresearch.com/beacon.js' %3E%3C/script%3E"));


  COMSCORE.beacon({
    c1:2,
    c2:6745264,
    c3:"",
    c4:document.location,
    c5:"",
    c6:"",
    c15:""
  });


  





(function (d, w, c) {
    (w[c] = w[c] || []).push(function() {
        try {
            w.yaCounter18746557 = new Ya.Metrika({id:18746557,
                    webvisor:true,
                    clickmap:true,
                    trackLinks:true,
                    accurateTrackBounce:true});
        } catch(e) { }
    });

var n = d.getElementsByTagName("script")[0],
        s = d.createElement("script"),
        f = function () { n.parentNode.insertBefore(s, n); };
    s.type = "text/javascript";
    s.async = true;
    s.src = (d.location.protocol == "https:" ? "https:" : "http:") + "//mc.yandex.ru/metrika/watch.js";

if (w.opera == "[object Opera]") {
        d.addEventListener("DOMContentLoaded", f, false);
    } else { f(); }
})(document, window, "yandex_metrika_callbacks");



.

$(document).ready(function(){abd_event()});function abd_event(){0==$(".yahooAd").height()?_gaq.push(["_trackEvent","AdBlock","AdBlock detection test","With AdBlock"]):_gaq.push(["_trackEvent","AdBlock","AdBlock detection test","Without AdBlock"])};


            
 
Show more