• Song:

    Every Snowflake Is Different

  • Artist:

    My Chemical Romance

sponsored links
Tabbed by: Q+A http://www.facebook.com/pages/Q-A/242980155748043
Email: (Our facebook Wall)
4/4 time
Standard tuning

Intro
G:------------------|-----------------|-----------------|-----------------|-----------------|
D:------------------|-----------------|-----------------|-----------------|-----------------|
A:- 5-5-5-5-5-5-5-5-|-4-4-4-4-4-4-4-4-|-2-2-2-2-2-2-2-2-|-0-0-0-0-0-0-0-0-|-----------------|
E:------------------|-----------------|-----------------|-----------------|-3-3-3-3-3-3-3-3-| 

G:------------------|-------------------|-----------------|
D:------------------|-------------------|-----------------|
A:-1-1-1-1-1-1-1-1-1| -5-5-5-5-5-5-5-5-5|-0-0-0-0-0-0-0-0-|
E:------------------|-------------------|-----------------|

Chorus
G:-----------------|-----------------|-----------------|-----------------|-----------------|
D:-----------------|-----------------|-----------------|-----------------|-----------------|
A:-5-5-5-5-5-5-5-5-|-4-4-4-4-4-4-4-4-|-2-2-2-2-2-2-2-2-|-0-0-0-0-0-0-0-0-|-----------------|
E:-----------------|-----------------|-----------------|-----------------|-3-3-3-3-3-3-3-3-| 

G:-----------------|-----------------|-----------------|----------------|-----------------|
D:-----------------|-----------------|-----------------|----------------|-----------------|
A:-----------------|-5-5-5-5-5-5-5-5-|-3-3-3-3-3-3-3-3-|----------------|-5-5-4-4-2-2-0-0-|
E:-5-5-5-5-5-5-5-5-|-----------------|-----------------|-5-5-5-5-5-5-5-5|-----------------|

G:------------------|-----------------|-----------------|----------------|
D:------------------|-----------------|-----------------|----------------|
A:------------------|-----------------|-5-5-5-5-5-5-5-5-|----------------|
E:-3-3-3-3-3-3-3-3--|-5-5-5-5-5-5-5-5-|-----------------|-0-0-0-0-0-0-0-0|

Verse/Bridge
Listen to the song for the actual rhythm but you can play it this way and it still sounds good.
G:-----------------|-----------------|----------------|----------------|-----------------|
D:-----------------|-----------------|----------------|----------------|-----------------|
A:-2-2-2-2-2-2-2-2-|-----------------|----------------|----------------|-2-2-2-2-2-2-2-2-|
E:-----------------|-2-2-2-2-2-2-2-2-|-3-3-3-3-3-3-3-3|-5-5-5-5-5-5-5-5|-----------------|

G:-----------------|-----------------|-----------------|----------------|----------------|
D:-----------------|-----------------|-----------------|----------------|----------------|
A:-----------------|-----------------|-----------------|----------------|----------------|
E:-2-2-2-2-2-2-2-2-|-3-3-3-3-3-3-3-3-|-3-3-3-3-3-3-3-3-|-5-5-5-5-5-5-5-5|-5-5-5-5-5-5-5-5|


Chorus 2 
You can play this note during the drum break if you want.
A:-5

The first 8 measures are actually the same as the intro.
G:-----------------|-----------------|-----------------|-----------------|-----------------|
D:-----------------|-----------------|-----------------|-----------------|-----------------|
A:-5-5-5-5-5-5-5-5-|-4-4-4-4-4-4-4-4-|-2-2-2-2-2-2-2-2-|-0-0-0-0-0-0-0-0-|-----------------|
E:-----------------|-----------------|-----------------|-----------------|-3-3-3-3-3-3-3-3-| 

G:------------------|-------------------|-----------------|
D:------------------|-------------------|-----------------|
A:-1-1-1-1-1-1-1-1-1| -5-5-5-5-5-5-5-5-5|-0-0-0-0-0-0-0-0-|
E:------------------|-------------------|-----------------|

G:------------------|-----------------|-----------------|-----------------|-----------------|
D:------------------|-----------------|-----------------|-----------------|-----------------|
A:- 5-5-5-5-5-5-5-5-|-4-4-4-4-4-4-4-4-|-2-2-2-2-2-2-2-2-|-0-0-0-0-0-0-0-0-|-----------------|
E:------------------|-----------------|-----------------|-----------------|-3-3-3-3-3-3-3-3-| 

G:-----------------|-End-On------------|
D:-----------------|-------------------|
A:-1-1-1-1-1-1-1-1-|-5-----------------|
E:-----------------|-------------------|



Resources
http://www.youtube.com/watch?v=NOyIuZnUASM  

                
Show more
sponsored links
sponsored links