• Song:

    Mastas Of Ravenkroft

  • Artist:

    My Chemical Romance

Tabber: Carlosmaniak

**UPDATED**
(Song Format, Breakdown, Solo, Outro)

..............
----Legend----
x-Dead Note
/-Slide
~-Hold
*-Palm Mute
b-Bend
h-Hammer On
p-Pull Off
.............

[Intro]
E----------------------------|
B----------------------------|
G-4444444/7777/3333----------|
D-xxxxxxx/xxxx/xxxx----------| x2
A-2222222/5555/1111----------|
E----------------------------|

[Verse 1]
E----------------------------|
B----------------------------|
G-4--------------------------|   x4
D-4-x7--5-----7--------------|
A-2-----5-x4--7-x4-----------|
E-------3-----5--------------|

[Chorus] 11's not 1's.
E-----------------------|
B-----------------------|
G-1111111/9/12121212----|
D-xxxxxxx/x/xxxxxxx-----| x4
A-9999999/7/999999(b9)----|
E-----------------------|
         [-then-]
E--------------------------------------|
B--------------------------------------|
G-11-------------4~--------------------|
D-x--x?10?-------x---------------------|
A-(b9)-------------2~--------------------|
D(not sure listen for accurate strums)-

0:32-0:41
E----------------------------|
B----------------------------|
G-4--------------------------|   x4
D-4-x7--5-----7--------------|
A-2-----5-x4--7-x4-----------|
E-------3-----5--------------|


[Chorus]
E-----------------------|
B-----------------------|
G-1111111/9/12121212----|
D-xxxxxxx/x/xxxxxxx-----| x4
A-9999999/7/999999(b9)----|
E-----------------------|

[Breakdown]
E------------------------------------------------|
B------------------------------------------------|
G-4~----7~----3~---------------------------------|
D-x-----x-----x---x2----(b9)-----------------------|
A-2~----5~----1~--------(b9)-(Repeat Until Solo)---|
E-----------------------7------------------------|
                        *
[Solo]
E--------------------------------------------------|
B--------------------------------------10b10b10b~--|
G-11b-11b-11b-11p(b9)11b-11b-11b-11h12p(b9)------------|
D--------------------------------------------------|
A--------------------------------------------------|
E--------------------------------------------------|

(Solo Continued)
E--------------------------------------------777----|
B-------10/12-10/12---------------------------------|
G-11-10-------------12p10-12p9b-7b-6b-5b 7b~--------|
D---------------------------------------------------|
A---------------------------------------------------|
E---------------------------------------------------|

[Chorus] once more
E-----------------------|
B-----------------------|
G-1111111/9/12121212----|
D-xxxxxxx/x/xxxxxxx-----| x8
A-9999999/7/999999(b9)----|
E-----------------------|

[Outro]
E------------------------------------------------|
B------------------------------------------------|
G------------------------------------------------|
D--4---------------------------------------------|
A--4---(Play Till End)---------------------------|
E--2---------------------------------------------|
   *
Show more