• Song:

    Planetary Go

  • Artist:

    My Chemical Romance

first verser:

no guitar just bass.

Per Chours (Part 1):
.....vilocigty.........Make You sweat..
e|-----------------------------------------------------|
B|-----------------------------------------------------|
G|---4-----------------5-------------------------------|
D|---5-----------------5---let it ring-------5-~~---4--|
A|---2--let it ring----3---------------------5-~~---5--|
E|-------------------------------------------3-~~---2--|

Per Chours (Part 2):
.......................................just........get up
e|-------------------------------------------------------|
B|-------------------------------------------------------|
G|---4--------------5-------------------8--~~--10-10-10--|
D|---5--------------5--let it ring------8--~~--10-10-10--|
A|---2-let it ring--3-------------------6--~~--8--8--8---|
E|-------------------------------------------------------|


chours :
...go!.........
e|-------------------------------|
B|-------------------------------|
G|----12--12---12----------------|    x3
D|----x---x----x--------10-----9-|
A|----10--10---10-------x---s--x-|
E|----------------------8------7-|

then :

e|------------------------------|
B|------------------------------|
G|----12--12--------------------|
D|----x---x---------------------|
A|----10--10-----------10---8-b-|
E|---------------------8----6-b-|


verse 2 ( 2 times) :
e|------------------------------------------------|
B|------------------------------------------------|
G|------------------------------------------------|
D|------------------------------------------------|
A|-------------------------------------10---8--b--|
E|----3-3-3-2-3---x2--7-7-7-6-7--8--8--8----6--b--|


then(2 times ) :

e|--------------------------------------------------|
B|--------------------------------------------------|
G|----12--12--14--15--16------12--12---9-10-11------|
D|----x---x---x---x---x-------x---x----x-x--x-------| x2
A|----10--10--12--13--14------10--10---7-8--9-------|
E|--------------------------------------------------|


e|-----------------------|
B|-----------------------|
G|----12-12--------------|
D|----x--x---------------|
A|----10-10-----10--8-b--|
E|--------------8---6-b--|

then per chours :

e|-----------------------------------------------------|
B|-----------------------------------------------------|
G|---4-----------------5-------------------------------|
D|---5-----------------5---let it ring-------5-~~---4--|
A|---2--let it ring----3---------------------5-~~---5--|
E|-------------------------------------------3-~~---2--|

Per Chours (Part 2):
.......................................just........get up
e|-------------------------------------------------------|
B|-------------------------------------------------------|
G|---4--------------5-------------------8--~~--10-10-10--|
D|---5--------------5--let it ring------8--~~--10-10-10--|
A|---2-let it ring--3-------------------6--~~--8--8--8---|
E|-------------------------------------------------------|

chours :


chours :

e|-------------------------------|
B|-------------------------------|
G|----12--12---12----------------|    x3
D|----x---x----x--------10-----9-|
A|----10--10---10-------x---s--x-|
E|----------------------8------7-|

then :

e|------------------------------|
B|------------------------------|
G|----12--12--------------------|
D|----x---x---------------------|
A|----10--10-----------10---8-b-|
E|---------------------8----6-b-|


then without guitar (you Unbelievable..)

then verse:

e|--------------------------------------------------|
B|--------------------------------------------------|
G|----12--12--14--15--16------12--12---9-10-11------|
D|----x---x---x---x---x-------x---x----x-x--x-------| x2
A|----10--10--12--13--14------10--10---7-8--9-------|
E|--------------------------------------------------|


e|-----------------------|
B|-----------------------|
G|----12-12--------------|
D|----x--x---------------|
A|----10-10-----10--8-b--|
E|--------------8---6-b--|

then per chours and chours again


bridge  just guitar play this (funky rythm) :

e|----8-8-x-8-8-x-x--|
B|----8-8-x-8-8-x-x--|
G|----9-9-x-9-9-x-x--|
D|-------------------|
A|-------------------|
E|-------------------|

the chours to the end.
Show more