• Song:

    Sleep

  • Artist:

    My Chemical Romance

  • Album:

    The Black Parade is Dea...

Ins.:
	Gtr 1 ? Frank Iero
	Gtr 2 ? Ray Toro
	Gtr 3 - ??? (overdubbed)


I. INTRO

(Piano)
e|-------------------|-------------------|4x
B|-------------------|-------------------|
G|--5---5---1---1----|--5---5---4---4----|
D|--5---5---3---3----|--5---5---5---5----|
A|--3-3-3-3-3---3----|--5---5---5---5----|
E|----------1-1-1-1--|--3-3-3-3-3-3-3-3--|


Gtr 1
e|--------------------|--------------------|--------------------|
B|--------------------|--------------------|--------------------|
G|--1212121212121212--|--1313131315151515--|--1212121212121212--|
D|---x-x-x-x-x-x-x-x--|---x-x-x-x-x-x-x-x--|---x-x-x-x-x-x-x-x--|
A|--1010101010101010--|--1111111113131313--|--1010101010101010--|
E|--------------------|--------------------|--------------------|
(continued)
e|--------------------|--------------------|--------------------|
B|--------------------|--------------------|--------------------|
G|--1313131312121010--|--9/10/12121212-----|--1313131315151515--|
D|---x-x-x-x-x-x-x-x--|--x--x--x-x-x-x-10--|---x-x-x-x-x-x-x-x--|
A|--111111111010-8-8--|--7/-8/10101010--x--|--1111111113131313--|
E|--------------------|-----------------8--|--------------------|
(continued)
e|--------------------|--------------------|
B|--------------------|--------------------|
G|--1212121212121212--|--1313131312121010--|
D|---x-x-x-x-x-x-x-x--|---x-x-x-x-x-x-x-x--|
A|--1010101010101010--|--111111111010-8-8--|
E|--------------------|--------------------|

Gtr 2
e|-------------------|-------------------|-------------------|
B|-------------------|-------------------|-------------------|
G|--5-5-5-5-5-5-5-5--|-------------------|-------------------|
D|--5-5-5-5-5-5-5-5--|--3-3-3-3-3-3-3-3--|--5-5-5-5-5-5-5-5--|
A|--3-3-3-3-3-3-3-3--|--3-3-3-3-3-3-3-3--|--5-5-5-5-5-5-5-5--|
E|-------------------|--1-1-1-1-1-1-1-1--|--3-3-3-3-3-3-3-3--|
(continued)
e|-------------------|-------------------|-------------------|
B|-------------------|-------------------|-------------------|
G|-------------------|-------------------|-------------------|
D|--5-5-5-5-5-5-5-5--|--2-2-2-2-2-2-2-2--|--3-3-3-3-3-3-3-3--|
A|--5-5-5-5-5-5-5-5--|--2-2-2-2-2-2-2-2--|--3-3-3-3-3-3-3-3--|
E|--3-3-3-3-3-3-3-3--|--0-0-0-0-0-0-0-0--|--1-1-1-1-1-1-1-1--|

e|-------------------|-------------------|
B|-------------------|-------------------|
G|-------------------|-------------------|
D|--5-5-5-5-5-5-5-5--|--5-5-5-5-5-5-5-5--|
A|--5-5-5-5-5-5-5-5--|--5-5-5-5-5-5-5-5--|
E|--3-3-3-3-3-3-3-3--|--3-3-3-3-3-3-3-3--|


II. VERSE 1

Gtr 1
e|---------|
B|---------|
G|--9~~~~--|
D|--x~~~~--|
A|--7~~~~--|
E|---------|
Gtr 2
e|---------|
B|---------|
G|--5~~~~--|
D|--5~~~~--|
A|--3~~~~--|
E|---------|

Then, when he says ?... breathe for me...?
Gtr 2
e|-------------|----------|--------------|----------15h16-15--|
B|-------------|----------|--------------|--------------------|
G|-------13~~--|--12~~~~--|-------13-15--|--12~~~~------------|
D|--10~~-------|----------|--10~~--------|--------------------|
A|-------------|----------|--------------|--------------------|
E|-------------|----------|--------------|--------------------|


III. REFRAIN

Gtr 1
e|------------------|------------------|
B|------------------|------------------|
G|--13~--5/7-8-7-5--|--13~--5/7-8-7-5--|
D|---x---x-x-x-x-x--|---x---x-x-x-x-x--|
A|--11~--3/5-6-5-3--|--11~--3/5-6-5-3--|
E|------------------|------------------|
(continued)
e|--------------------------|--------------------------|
B|--------------------------|--------------------------|
G|--7/8-5-5~-10-10--7-8~--|--7/8-5-5~-10-10-7-5-3--|
D|--x-x-x-x-x---x--x--x-x---|--x-x-x-x-x---x--x-x-x-x--|
A|--5/6-3-3~--8--8--5-6~--|--5/6-3-3~--8--8-5-3-1--|
E|--------------------------|--------------------------|
(continued)
e|------------------|------------------|
B|------------------|------------------|
G|--13~--5/7-8-7-5--|--13~--5/7-8-7-5--|
D|---x---x-x-x-x-x--|---x---x-x-x-x-x--|
A|--11~--3/5-6-5-3--|--11~--3/5-6-5-3--|
E|------------------|------------------|
Gtr 2
e|-----------------------------------|-----------------------------------|
B|-----------------------------------|-----------------------------------|
G|-----------------------------------|-----------------------------------|
D|--6-6-6-6-6-6-6-6-6-6-6-6-6-6-6-6--|--3-3-3-3-3-3-3-3-3-3-3-3-3-3-3-3--|
A|--6-6-6-6-6-6-6-6-6-6-6-6-6-6-6-6--|--3-3-3-3-3-3-3-3-3-3-3-3-3-3-3-3--|
E|--4-4-4-4-4-4-4-4-4-4-4-4-4-4-4-4--|--1-1-1-1-1-1-1-1-1-1-1-1-1-1-1-1--|
(continued)
e|-----------------------------------|-----------------------------------|
B|-----------------------------------|-----------------------------------|
G|--5-5-5-5-5-5-5-5-5-5-5-5-5-5-5-5--|--3-3-3-3-3-3-3-3-3-3-3-3-3-3-3-3--|
D|--5-5-5-5-5-5-5-5-5-5-5-5-5-5-5-5--|--3-3-3-3-3-3-3-3-3-3-3-3-3-3-3-3--|
A|--3-3-3-3-3-3-3-3-3-3-3-3-3-3-3-3--|--1-1-1-1-1-1-1-1-1-1-1-1-1-1-1-1--|
E|-----------------------------------|-----------------------------------|
(continued)
e|-----------------------------------|-----------------------------------|
B|-----------------------------------|-----------------------------------|
G|-----------------------------------|-----------------------------------|
D|--6-6-6-6-6-6-6-6-6-6-6-6-6-6-6-6--|--3-3-3-3-3-3-3-3-3-3-3-3-3-3-3-3--|
A|--6-6-6-6-6-6-6-6-6-6-6-6-6-6-6-6--|--3-3-3-3-3-3-3-3-3-3-3-3-3-3-3-3--|
E|--4-4-4-4-4-4-4-4-4-4-4-4-4-4-4-4--|--1-1-1-1-1-1-1-1-1-1-1-1-1-1-1-1--|


IV. CHORUS

Gtr 1
e|---------------------------------|-----------------------------------|2x
B|---------------------------------|-----------------------------------|
G|--12121212121212121212-(b9)7--|--5-5-5-5-5-5-5-5-4-4-4-4-4-4-4-4--|
D|---x-x-x-x-x-x-x-x-x-x--x-x-x-x--|--x-x-x-x-x-x-x-x-x-x-x-x-x-x-x-x--|
A|--10101010101010101010\-8-7-5--|--3-3-3-3-3-3-3-3-2-2-2-2-2-2-2-2--|
E|---------------------------------|-----------------------------------|
Gtr 2
e|-----------------------------------|-----------------------------------|2x
B|-----------------------------------|-----------------------------------|
G|--5-5-5-5-5-5-5-5-5-5-5-5-5-5-5-5--|-----------------------------------|
D|--5-5-5-5-5-5-5-5-5-5-5-5-5-5-5-5--|--2-2-2-2-2-2-2-2-2-2-2-2-2-2-2-2--|
A|--3-3-3-3-3-3-3-3-3-3-3-3-3-3-3-3--|--2-2-2-2-2-2-2-2-2-2-2-2-2-2-2-2--|
E|-----------------------------------|--0-0-0-0-0-0-0-0-0-0-0-0-0-0-0-0--|

Then,
Both guitars
e|--------------------------|-----------------------------|
B|--------------------------|-----------------------------|
G|--------------------------|-----------------------------|
D|--3--3--3--3--3--3--3--3--|--6-6-6-6-6-6-6-6-5----------|
A|--3--3--3--3--3--3--3--3--|--6-6-6-6-6-6-6-6-5-(pause)--|
E|--1--1--1--1--1--1--1--1--|--4-4-4-4-4-4-4-4-3----------|



V. VERSE 2

Gtr 1
e|--15--|(just repeat, this note circulates throughout the verse)
B|------|
G|------|
D|------|
A|------|
E|------|

Then, when he says ?...tyranny...?
Gtr 2
e|-------------|----------|--------------|----------15h16-15--|
B|-------------|----------|--------------|--------------------|
G|-------13~~--|--12~~~~--|-------13-15--|--12~~~~------------|
D|--10~~-------|----------|--10~~--------|--------------------|
A|-------------|----------|--------------|--------------------|
E|-------------|----------|--------------|--------------------|

[Repeat REFRAIN and CHORUS]

(Piano)
e|-------------------|-------------------|4x
B|-------------------|-------------------|
G|--5---5---1---1----|--5---5---4---4----|
D|--5---5---3---3----|--5---5---5---5----|
A|--3-3-3-3-3---3----|--5---5---5---5----|
E|----------1-1-1-1--|--3-3-3-3-3-3-3-3--|
Gtr ?
e|-------------------|? times
B|-------------------|
G|-------------------|
D|-------------------|
A|--3-3-----3-3------|
E|------4h5-----4h5--|
PM| . . . . . . . . .|

Then, REPEAT INTRO, just listen to the song for the variation.

After sometime,
Gtr 1
e|----------------------------------|
B|----------------------------------|
G|--17--17--17--17--1(b9)-20--1(b9)-17--|
D|---x---x---x---x---x---x---x---x--|
A|--15--15--15--15--17--18--17--15--|
E|----------------------------------|
Gtr 2
e|--------------------------|
B|--------------------------|
G|--------------------------|
D|--5--5--5--5--5--5--5--5--|
A|--5--5--5--5--5--5--5--5--|
E|--3--3--3--3--3--3--3--3--|

Gtr 1
e|---------------------------------|-----------------------------------|4x
B|---------------------------------|-----------------------------------|
G|--12121212121212121212-(b9)7--|--5-5-5-5-5-5-5-5-4-4-4-4-4-4-4-4--|
D|---x-x-x-x-x-x-x-x-x-x--x-x-x-x--|--x-x-x-x-x-x-x-x-x-x-x-x-x-x-x-x--|
A|--10101010101010101010\-8-7-5--|--3-3-3-3-3-3-3-3-2-2-2-2-2-2-2-2--|
E|---------------------------------|-----------------------------------|
Gtr 2
e|-----------------------------------|-----------------------------------|4x
B|-----------------------------------|-----------------------------------|
G|--5-5-5-5-5-5-5-5-5-5-5-5-5-5-5-5--|-----------------------------------|
D|--5-5-5-5-5-5-5-5-5-5-5-5-5-5-5-5--|--2-2-2-2-2-2-2-2-2-2-2-2-2-2-2-2--|
A|--3-3-3-3-3-3-3-3-3-3-3-3-3-3-3-3--|--2-2-2-2-2-2-2-2-2-2-2-2-2-2-2-2--|
E|-----------------------------------|--0-0-0-0-0-0-0-0-0-0-0-0-0-0-0-0--|
Gtr 3
e|-----------------------------------|--------------------|4x
B|-----------------------------------|--------------------|
G|-----------------------------------|--------------------|
D|-----------------12-13-12--10--10--|--12-13-12--10--10--|
A|-----------------------------------|--------------------|
E|-----------------------------------|--------------------|

End on:
Gtr 1
e|----------|
B|----------|
G|--12~~~~--|
D|---x------|
A|--10~~~~--|
E|----------|
Gtr 2
e|---------|
B|---------|
G|--5~~~~--|
D|--5~~~~--|
A|--3~~~~--|
E|---------|
Gtr 3
e|--15-----------------------|4x |--15~~~~--|
B|--------13----15-16-15-13--|   |----------|
G|-----12----12--------------|   |----------|
D|---------------------------|   |----------|
A|---------------------------|   |----------|
E|---------------------------|   |----------|
Show more