• Song:

    The end

  • Artist:

    My Chemical Romance

THIS IS A WARNING: 
This is NOT "To The End" on Three Cheers For Sweet Revenge.  
This is "THE End", from their album The Black Parade. 
Just thought I'd let you know beforehand. 





Intro: 

Gtr I 

e:|--------------------------------| 
B:|--------------------------------| 
G:|--------------------------------| 
D:|-x-xxxxx-xxxxx-xxxxx-xxxxx-xxxx-| 
A:|-x-xxxxx-xxxxx-xxxxx-xxxxx-xxxx-| 
E:|-x-xxxxx-xxxxx-xxxxx-xxxxx-xxxx-| 

Verse I 

Gtr I 

e:|---------------------------------------------| 
B:|---------------------------------------------| 
G:|---------------------------------------------| 
D:|-5-55555-55555-5555-------2-22222-22222-2222-| 
A:|-5-55555-55555-5555-------2-22222-22222-2222-| 
E:|-3-33333-33333-3333-3-2-0-0-00000-00000-0000-| 

e:|----------------------------------------------| 
B:|----------------------------------------------| 
G:|-6-66666-66666-6666-0-00000-0000-7-77777-7777-| 
D:|-6-66666-66666-6666-1-11111-1111-7-77777-7777-| 
A:|-4-44444-44444-4444-3-33333-3333-5-55555-5555-| 
E:|----------------------------------------------| 

Chorus 

Gtr I 

e:|-------------------------------------------------| 
B:|-------------------------------------------------| 
G:|------------------------6-6-6-6-7-6-5-5-5-7-5----| 
D:|-5-5-5-7-9-7-5-2-2-4-2--6-6-6-6-7-6-5-5-5-7-5-5~-| 
A:|-5-5-5-7-9-7-5-2-2-4-2--4-4-4-4-5-4-3-3-3-5-3-5~-| 
E:|-3-3-3-5-7-5-3-0-0-2-0------------------------3~-| 

Gtr II 

e:|------------------------------------------------------------------| 
B:|------------------------------------------------------------------| 
G:|-12-12-12-14-16-14-12-9-9-11-9--18-18-18-18-19-18-17-17-19-17-12~-| 
D:|------------------------------------------------------------------| 
A:|-10-10-10-12-14-12-10-7-7-9--7--16-16-16-16-17-16-15-15-17-15-10~-| 
E:|------------------------------------------------------------------| 

Verse II 

For this verse, Gtr I just repeats the last verse, Gtr II plays this: 

{ For the notes before the line, pick the strings at the bottom pick  
up, the effect should sound right } 

e:|-----------------------------|--------------------------| 
B:|-----------------------------|--------------------------| 
G:|-------------------6~-----1~-|-3^5(r)3^5(r)3^5(r)3^5(r)-| 
D:|-----5~-----2~---6~-----3~---|--------------------------| 
A:|---5~-----2~---4~-----0~-----|--------------------------| 
E:|-3~-----0~-------------------|--------------------------| 

Repeat Chorus. 

OUtro: 

Gtr I 

e:|-------------------------| 
B:|-------------------------| 
G:|-5-5-5-6-6-6-7-7-7-6-6-6-| 
D:|-5-5-5-6-6-6-7-7-7-6-6-6-| 
A:|-3-3-3-4-4-4-5-5-5-4-4-4-| 
E:|-------------------------| 

Gtr II 

e:|-------------------------------------| 
B:|-------------------------------------| 
G:|-18-18-18-19-19-19-20-20-20-19-19-19-| 
D:|-------------------------------------| 
A:|-16-16-16-17-17-17-18-18-18-17-17-17-| 
E:|-------------------------------------|
Show more