• Song:

    To the end

  • Artist:

    My Chemical Romance

  • Album:

    Live at KROQ Weenie Roa...

sponsored links
Guitarra e bateria na introducao

Pre Refra 0:25
G|---------------------------|
D|---------------------------|
A|---------------------------|
E|-3~-1~-0~-55555555/9999999-|

Refrao 0:35
G|-----------------------------------------------------|
D|-----------------------------------------------------|
A|-5-55-55-55-5-3-33-33-33-3-0-00-00-00-0-1-11-11-11-1-|
E|-----------------------------------------------------|

Fill 0:48
G|--------|
D|--------|
A|-5-55-5-|
E|--------|

Verso 0:50
G|---------------------------------------------------|
D|---------------------------------------------------|
A|-5-55-55-55-5-4-44-44-44-4-1-11-11-11-1---------04-|
E|----------------------------------------3-33-33----|

Continuacao 1:02
G|-------------------------------------------------|
D|-------------------------------------------------|
A|-5-55-55-55-5-4-44-44-44-4-1-11-11-11-1----------|
E|----------------------------------------3-33-35~-|

Pre Refrao 1:15
G|---------------------------|
D|---------------------------|
A|---------------------------|
E|-3~-1~-0~-55555555/9999999-|

Variacao do refrao 1:27
G|-------------------------------------------------------------|
D|-------------------------------------------------------------| x2
A|-5-55-55-55-5-3-33-33-33-3-0000000000000000-1111111111111111-|
E|-------------------------------------------------------------|

Ponte 1:49
G|-----------------------------------------------------------------|
D|-----------------------------------------------------------------|
A|-5-5-5-5-1-1-1-1-0-0-0-0-1-1-1-1-5-5-5-5-1-1-1-1-0-0-0-0-1-1-1-1-|
E|-----------------------------------------------------------------|

Continuacao 2:02
G|-------------------------------------------------------------------------|
D|-------------------------------------------------------------------------|
A|-55555555-11111111-00000000-11111111-55555555-11111111-------------------|
E|-------------------------------------------------------33333333/88888888-|

Variacao do refrao 2:14
G|-------------------------------------------------------------|
D|-------------------------------------------------------------| x2
A|-5-55-55-55-5-3-33-33-33-3-0000000000000000-1111111111111111-|
E|-------------------------------------------------------------|

Outro 2:36
G|------------------------------------------------------------------------|
D|------------------------------------------------------------------------|
A|-3333333333333333-5555555555555555-1111111111111111-3333333333333333-5~-|
E|------------------------------------------------------------------------|
Show more
sponsored links
sponsored links